Oops, an error
Loading. Please wait.

El Infierno De Ayer tab

by Malon
49 views 6 this week
no commentswrite comment
1 2 3 4 5
3 more votes to show rating
add to favorites
×
Save as Personal and add changes to this tab that will be seen only by you. Learn more ›
×
You can save this tab as Personal to edit and correct it or add notes. All changes will be seen only by you. Learn more »
launch autoscroll
font size
0
reset
how to read this tab
guitar tuner
edit
Autoscroll
slow
fast
+/-
esc
set tempo
stop
[Intro]
e|------------------------------|---------------------------------------------|
B|------------------------------|---------------------------------------------|
G|------------------------------|---------------------------------------------|
D|-------9---9----------7---7---|---------------------------------------------|
A|-------7---7----------5---5---|-------8---8------5-7---5--------------------|
E|-0-0-0----------0-0-0---------|-0-0-0-6---6----0-3-5---3--------------------|

e|------------------------------|---------------------------------------------|
B|------------------------------|---------------------------------------------|
G|------------------------------|---------------------------------------------|
D|-------9---9----------7---7---|------------------10-9---7-------------------|
A|-------7---7----------5---5---|-------8---8------8--7---5-------------------|
E|-0-0-0----------0-0-0---------|-0-0-0-6---6----0----------------------------|

e|------------------------------|---------------------------------------------|
B|------------------------------|---------------------------------------------|
G|------------------------------|---------------------------------------------|
D|-------9---9----------7---7---|---------------------------------------------|
A|-------7---7----------5---5---|-------8---8------5-7---5--------------------|
E|-0-0-0----------0-0-0---------|-0-0-0-6---6----0-3-5---3--------------------|

e|------------------------------|---------------------------------------------|
B|------------------------------|---------------------------------------------|
G|------------------------------|---------------------------------------------|
D|-------9---9----------7---7---|---------------------------------------------|
A|-------7---7----------5---5---|---8--7-------5--7---------------------------|
E|-0-0-0----------0-0-0---------|-0-6--5-----0-3--5---------------------------|

e|------------------------------|---------------------------------------------|
B|------------------------------|---------------------------------------------|
G|------------------------------|---------------------------------------------|
D|-------9---9----------7---7---|---------------------------------------------|
A|-------7---7----------5---5---|-------8---8------5-7---5--------------------|
E|-0-0-0----------0-0-0---------|-0-0-0-6---6----0-3-5---3--------------------|

e|------------------------------|---------------------------------------------|
B|------------------------------|---------------------------------------------|
G|------------------------------|---------------------------------------------|
D|-------9---9----------7---7---|------------------10-9---7-------------------|
A|-------7---7----------5---5---|-------8---8------8--7---5-------------------|
E|-0-0-0----------0-0-0---------|-0-0-0-6---6----0----------------------------|

e|------------------------------|---------------------------------------------|
B|------------------------------|---------------------------------------------|
G|------------------------------|---------------------------------------------|
D|-------9---9----------7---7---|---------------------------------------------|
A|-------7---7----------5---5---|-------8---8------5-7---5--------------------|
E|-0-0-0----------0-0-0---------|-0-0-0-6---6----0-3-5---3--------------------|

e|------------------------------|---------------------------------------------|
B|------------------------------|---------------------------------------------|
G|------------------------------|---------------------------------------------|
D|-------9---9----------7---7---|---------------------------------------------|
A|-------7---7----------5---5---|---8--7--------------------------------------|
E|-0-0-0----------0-0-0---------|-0-6--5--------------------------------------|

[Verse 1]
e|-----------------------------------|----------------------------------------------|
B|-----------------------------------|----------------------------------------------|
G|-----------------------------------|----------------------------------------------|
D|-----------------------------------|----------------------------------------------|
A|-------2-----------------------2---|--------5-----------2-----------------------2-|
E|-0-0-0-0-----0-0-0-0-0-0-0-0-0-0---|--0-0-0-3-----0-0-0-0-----0-0-0-0-0-0-0-0-0-0-|

e|----------------------------------------------|-------------------------------------------------------|
B|----------------------------------------------|-------------------------------------------------------|
G|----------------------------------------------|-------------------------------------------------------|
D|----------------------------------------------|-------------------------------------------------------|
A|-------------------2-----------------------2--|---------------------2-----------2----8--7-------5--7--|
E|-0-0-0-6-5-0-0-0-0-0-----0-0-0-0-0-0-0-0-0-0--|---0-0-0-3h5---0-0-0-0-----0-0-0-0--0-6--5-----0-3--5--|

[Chorus]
e|-----------------------------|---------------------------------|
B|-----------------------------|---------------------------------|
G|-----------------------------|---------------------------------|
D|-------9---9----------7---7--|---------------------------------|
A|-------7---7----------5---5--|-------8---8------5-7---5--------|
E|-0-0-0----------0-0-0--------|-0-0-0-6---6----0-3-5---3--------|

e|-----------------------------|---------------------------------|
B|-----------------------------|---------------------------------|
G|-----------------------------|---------------------------------|
D|-------9---9----------7---7--|------------------10-9---7-------|
A|-------7---7----------5---5--|-------8---8------8--7---5-------|
E|-0-0-0----------0-0-0--------|-0-0-0-6---6----0----------------|

e|-----------------------------|---------------------------------|
B|-----------------------------|---------------------------------|
G|-----------------------------|---------------------------------|
D|-------9---9----------7---7--|---------------------------------|
A|-------7---7----------5---5--|-------8---8------5-7---5--------|
E|-0-0-0----------0-0-0--------|-0-0-0-6---6----0-3-5---3--------|

e|-----------------------------|---------------------------------|
B|-----------------------------|---------------------------------|
G|-----------------------------|---------------------------------|
D|-------9---9----------7---7--|---------------------------------|
A|-------7---7----------5---5--|---8--7-------5--7---------------|
E|-0-0-0----------0-0-0--------|-0-6--5-----0-3--5---------------|

[Verse 2]
e|-----------------------------------|----------------------------------------------|
B|-----------------------------------|----------------------------------------------|
G|-----------------------------------|----------------------------------------------|
D|-----------------------------------|----------------------------------------------|
A|-2---------------------------------|--------5-----------2-----------------------2-|
E|-0---------------------------------|--0-0-0-3-----0-0-0-0-----0-0-0-0-0-0-0-0-0-0-|

e|----------------------------------------------|-------------------------------------------------------|
B|----------------------------------------------|-------------------------------------------------------|
G|----------------------------------------------|-------------------------------------------------------|
D|----------------------------------------------|-------------------------------------------------------|
A|-------------------2-----------------------2--|---------------------2-----------2----8--7-------5--7--|
E|-0-0-0-6-5-0-0-0-0-0-----0-0-0-0-0-0-0-0-0-0--|---0-0-0-3h5---0-0-0-0-----0-0-0-0--0-6--5-----0-3--5--|

[Bridge]
e|----------------------------|-----------------------------|
B|----------------------------|-----------------------------|
G|----------------------------|-----------------------------|
D|----------------------------|-----------------------------|
A|-------7p5-7----------------|---------------5---7--5------|
E|-0-0-0---------0-0-0-6p5-6--|-0-0-0-5p3-5-0-3---5--3------|

e|----------------------------|-----------------------------|
B|----------------------------|-----------------------------|
G|----------------------------|-----------------------------|
D|----------------------------|-----------------------------|
A|-------7p5-7----------------|--------------5-5-5-----5-5--|
E|-0-0-0---------0-0-0-6p5-6--|-0-0-0-5p3-5--3-3-3-----3-3--|

e|----------------------------|-----------------------------|
B|----------------------------|-----------------------------|
G|----------------------------|-----------------------------|
D|----------------------------|-----------------------------|
A|-------7p5-7----------------|---------------5---7--5------|
E|-0-0-0---------0-0-0-6p5-6--|-0-0-0-5p3-5-0-3---5--3------|

e|----------------------------|-----------------------------|
B|----------------------------|-----------------------------|
G|----------------------------|-----------------------------|
D|---------------------5p4-5--|-----------------------------|
A|-------7p5-7----------------|---------------5---7--5------|
E|-0-0-0---------0-0-0--------|-0-0-0-5p3-5-0-3---5--3------|

e|----------------------------|-----------------------------|
B|----------------------------|-----------------------------|
G|----------------------------|-----------------------------|
D|----------------------------|-----------------------------|
A|-------7p5-7----------------|---------------5---7--5------|
E|-0-0-0---------0-0-0-6p5-6--|-0-0-0-5p3-5-0-3---5--3------|

e|----------------------------|-----------------------------|
B|----------------------------|-----------------------------|
G|----------------------------|-----------------------------|
D|----------------------------|-----------------------------|
A|-------7p5-7----------------|--------------5-5-5-----5-5--|
E|-0-0-0---------0-0-0-6p5-6--|-0-0-0-5p3-5--3-3-3-----3-3--|

[Solo]
e|---------------------------------|------------------------------------------|
B|---------------------------------|-15---------------------------------------|
G|---------------------------14b---|-14b---br14p12h14---------12-11h12p11-----|
D|----------14-16-----14-12--------|--------------------------------------14--|
A|-------14------------------------|------------------------------------------|
E|-12------------------------------|------------------------------------------|

e|---------------------------------|------------------------------------------|
B|----------15-----15--------------|------------------------------------------|
G|--x-14b---14b----14b---br14p12h14|-------12-11-12----12p11------------------|
D|---------------------------------|------------------------14----------------|
A|---------------------------------|------------------------------------------|
E|---------------------------------|------------------------------------------|

e|---------------------------------|------------------------------------------|
B|-15-15b---15b---15b~------12-----|--12-------15-----------------------------|
G|------------------------------14-|-----14b---14b---br14p12h14---------------|
D|---------------------------------|------------------------------------------|
A|---------------------------------|------------------------------------------|
E|---------------------------------|------------------------------------------|

e|---------------------------------|------------------------------------------|
B|---------------------------------|---------------15-------------------------|
G|---------------------------------|--------14b----14b---br14p12h14-----------|
D|------------------14-16----------|--14-12-----------------------------------|
A|----10---------14----------------|------------------------------------------|
E|-12----12------------------------|------------------------------------------|

[Verse 3]
e|-----------------------------------|----------------------------------------------|
B|-----------------------------------|----------------------------------------------|
G|-----------------------------------|----------------------------------------------|
D|-----------------------------------|----------------------------------------------|
A|-2-2-2-----------------------------|--------5-----------2-----------------------2-|
E|-0-0-0-----------------------------|--0-0-0-3-----0-0-0-0-----0-0-0-0-0-0-0-0-0-0-|

e|----------------------------------------------|-------------------------------------------------------|
B|----------------------------------------------|-------------------------------------------------------|
G|----------------------------------------------|-------------------------------------------------------|
D|----------------------------------------------|-------------------------------------------------------|
A|-------------------2-----------------------2--|---------------------2-----------2----8--7-------5--7--|
E|-0-0-0-6-5-0-0-0-0-0-----0-0-0-0-0-0-0-0-0-0--|---0-0-0-3h5---0-0-0-0-----0-0-0-0--0-6--5-----0-3--5--|

e|-----------------------------------|
B|-----------------------------------|
G|-----------------------------------|
D|-----------------------------------|
A|-2-2-2-----------------------------|
E|-0-0-0-----------------------------|

[Chorus 2]
e|------------------------------|---------------------------------------------|
B|------------------------------|---------------------------------------------|
G|------------------------------|---------------------------------------------|
D|-------9---9----------7---7---|---------------------------------------------|
A|-------7---7----------5---5---|-------8---8------5-7---5--------------------|
E|-0-0-0----------0-0-0---------|-0-0-0-6---6----0-3-5---3--------------------|

e|------------------------------|---------------------------------------------|
B|------------------------------|---------------------------------------------|
G|------------------------------|---------------------------------------------|
D|-------9---9----------7---7---|------------------10-9---7-------------------|
A|-------7---7----------5---5---|-------8---8------8--7---5-------------------|
E|-0-0-0----------0-0-0---------|-0-0-0-6---6----0----------------------------|

e|------------------------------|---------------------------------------------|
B|------------------------------|---------------------------------------------|
G|------------------------------|---------------------------------------------|
D|-------9---9----------7---7---|---------------------------------------------|
A|-------7---7----------5---5---|-------8---8------5-7---5--------------------|
E|-0-0-0----------0-0-0---------|-0-0-0-6---6----0-3-5---3--------------------|

e|------------------------------|---------------------------------------------|
B|------------------------------|---------------------------------------------|
G|------------------------------|---------------------------------------------|
D|-------9---9----------7---7---|---------------------------------------------|
A|-------7---7----------5---5---|---8--7-------5--7---------------------------|
E|-0-0-0----------0-0-0---------|-0-6--5-----0-3--5---------------------------|

e|------------------------------|---------------------------------------------|
B|------------------------------|---------------------------------------------|
G|------------------------------|---------------------------------------------|
D|-------9---9----------7---7---|---------------------------------------------|
A|-------7---7----------5---5---|-------8---8------5-7---5--------------------|
E|-0-0-0----------0-0-0---------|-0-0-0-6---6----0-3-5---3--------------------|

e|------------------------------|---------------------------------------------|
B|------------------------------|---------------------------------------------|
G|------------------------------|---------------------------------------------|
D|-------9---9----------7---7---|------------------10-9---7-------------------|
A|-------7---7----------5---5---|-------8---8------8--7---5-------------------|
E|-0-0-0----------0-0-0---------|-0-0-0-6---6----0----------------------------|

e|------------------------------|---------------------------------------------|
B|------------------------------|---------------------------------------------|
G|------------------------------|---------------------------------------------|
D|-------9---9----------7---7---|---------------------------------------------|
A|-------7---7----------5---5---|---8--7------------2-------------------------|
E|-0-0-0----------0-0-0---------|-0-6--5------------0-------------------------|


************************************

| x   Dead note
| h   Hammer-on
| p   Pull-off
| b   Bend
| br  Bend release
| ~   Vibrato

************************************

            
            
Suggest correction
Creating personal tab
Creating personal tab
You can edit any tab online and save it as your Personal.

You can edit, replace or remove any tab part or add personal notes – all changes will be seen only by you.

Personal tabs can be accessed anytime from any device, even offline.
Learn more »
Give kudos to tab author, rate the tab!
1 2 3 4 5
comments
print report bad tab
guest
You may want to rate the tab now too:
select rating
Wanna post a correction for this tab? Suggest correction