Oops, an error
Loading. Please wait.

Espiritu Combativo Tab

version 2
version 2

Whole song

Interactive

by Malon
31 views 1 this week
no commentswrite comment
1 2 3 4 5
3 more votes to show rating
add to favorites
launch autoscroll
font size
0
reset
how to read this tab
guitar tuner
×
Best way to learn
"Espiritu Combativo"
Autoscroll
slow
fast
+/-
esc
set tempo
stop
Este tema no es muy fácil

Intro
|----------------------------------------------------------------------
|----------------------------------------------------------------------
|----------------------------------------------------------------------
|--2-----------5-4-5-----------7-5-2-----------5-4-5----------7----10--
|--2----2h3p2--5-4-5----5h7p5--7-5-2----2h3p2--5-4-5----5h7---7----10--
|--0--0--------3-2-3--3--------5-3-0--0--------3-2-3--3-----0-5--0--8--
PM    .               .               .               .

-------------------------------------------------------------------------------------------|
-------------------------------------------------------------------------------------------|
-------------------------------------------------------------------------------------------|
--2-----------5-4-5------------7-5-2-----------5-4-5----------7---10-2-----10---7---9---5--|
--2----2h3p2--5-4-5----5h7p5---7-5-2----2h3p2--5-4-5----5h7---7---10-2-----10---7---9---5--|
--0--0--------3-2-3--3-------0-5-3-0--0--------3-2-3--3-----0-5-0--8-0---0--8-0-5-0-7-0-3--|
PM   .               .                .               .


  [ch]B                    [ch]C   [ch]A SI[/ch]                   DO[/ch]   RE[/ch]
|-------------------------------------------------------------|
|-------------------------------------------------------------|
|-------------------------------------------------------------|
|------9-----9-----9----10---7------9-----9-----9----10---12--|
|------9-----9-----9----10---7------9-----9-----9----10---12--|
|--77777-77777-77777--0--8-0-5--77777-77777-77777--0--8-0-10--|
PM ....  ....  ....             ....  ....  ....
   Viviendo bajo el alcance     de la ira despreciable
   debo encontrar al sol,       el camino a perdurar
   Soportar la miseria,         desgarrando mis entrañas
  [ch]B                    [ch]C   [ch]A SI             DO   LA[/ch]  SI[/ch]  SOL[/ch]
|--------------------------------------------------------------|
|--------------------------------------------------------------|
|--------------------------------------------------------------|
|------9-----9-----9----10---7------9-----9----10---7---9---5--|
|------9-----9-----9----10---7------9-----9----10---7---9---5--|
|--77777-77777-77777--0--8-0-5--77777-77777--0--8-0-5-0-7-0-3--|
PM ....  ....  ....             ....  ....
   Anclado en mis piernas,      por sobre toda la tierra


|-------------------------------------------------|
|-------------------------------------------------|
|-----------4-------------------------4/5/7-2-4-5-| x2
|-2-----2---4-5-----4-3-2---2-----2---4/5/7-2-4-5-|
|-2-----2---2-5--5--4-3-2---2-----2---2/3/5-0-2-3-|
|-0-000-0-0---3--3--2-1-0---0-000-0-0-------------|
    ...   .      .            ...   .
    Recordando soy esclavo
    del pandemonium social


Desarrollo malogrado
Ideas irresponsables
Manteniendome al costado
De mentes en decadencia

Recordando soy esclavo
Del pandemonium social

|-----------------------------------------------------------|
|-----------------------------------------------------------|
|------------------5-----4--5-------------------5--9--7--4--|
|--2-------5-4-4-4-5--5--4--5---2-------5-4-4-4-5--9--7--4--|
|--2-2-4-4-5-2-2-2-3--5--2--3---2-2-4-4-5-2-2-2-3--7--5--2--|
|--0-0-2-2-3----------3---------0-0-2-2-3-------------------|
PM   .....   .....                .....   .....
     Si el mañana se alterna por concebir sin pericia
     Su espíritu combativo es el que hará justicia

Solo: [ch]B[/ch]

De soñar a primitivo
De comodín a propio as
Alzando el sentimiento
Que vive en mi por demás


Recuérdalo si eres esclavo
nunca te olvides de combatir
Recuérdalo ser para siempre
el reflejo de tu sentir


   [ch]B             [ch]C   [ch]A[/ch]  SI[/ch]  SOL[/ch]
|----------------------------------|
|----------------------------------|
|----------------------------------|
|------9-----9----10---7---9---5-2-|
|------9-----9----10---7---9---5-2-|
|--77777-77777--0--8-0-5-0-7-0-3-0-|
PM ....  ....

                 V8
Hermética  Horcas  Logos  Rata Blanca

Freyre, Cba.
Suggest correction
Give kudos to tab author, rate the tab!
1 2 3 4 5
comments
print report bad tab
guest
You may want to rate the tab now too:
select rating
Wanna post a correction for this tab? Suggest correction