Oops, an error
Loading. Please wait.

Espiritu Combativo Tab

version 3
version 3

Whole song

Interactive

by Malon
33 views 1 this week
no commentswrite comment
1 2 3 4 5
3 more votes to show rating
add to favorites
×
Save as Personal and add changes to this tab that will be seen only by you. Learn more ›
×
You can save this tab as Personal to edit and correct it or add notes. All changes will be seen only by you. Learn more »
save as personal
new!
launch autoscroll
font size
0
reset
how to read this tab
guitar tuner
Autoscroll
slow
fast
+/-
esc
set tempo
stop
Author
Unregistered
Hola a todos, esta es la segunda transcripcion que subo,
no es tán dificil, a ecepcion del solo, pro con practica sale,
 y bue, solo hay que agarrarle la mano, aquí les va?

E |-------------------------|----------------------|
B |-------------------------|----------------------|
G |-------------------------|----------------------|
D |-------------------------|----------------------|
A |-2------2-3-2----5--4--5-|-----5-7-5----7--5----|
E |-0----0----------3--2--3-|---3----------5--3----|

E |-------------------------|------------------------|
B |-------------------------|------------------------|
G |-------------------------|------------------------| X2
D |-------------------------|------------------------|
A |-2------2-3-2----5--4--5-|-----5-7----7----10--2--|
E |-0----0----------3--2--3-|---3------0-5--0-8---0--|


E |------------------------|
B |------------------------|
G |------------------------|
D |------------------------|
A |---10----7-----9-----5--|
E |-0-8---0-5---0-7---0-3--|

Riff A

E |---------------------------------------|
B |---------------------------------------|
G |---------------------------------------|
D |---------------------------------------|
A |-------9--------9--------9-----10---7--|
E |-7777777--7777777--7777777---0-8--0-5--|

Riff B

E |----------------------------------------|
B |----------------------------------------|
G |----------------------------------------|
D |----------------------------------------|
A |-------9--------9--------9-----10---12--|
E |-7777777--7777777--7777777---0-8--0-10--|

Riff C

E |-------------------------------------|
B |-------------------------------------|
G |-------------------------------------|
D |-------------------------------------|
A |-------9--------9----10---7---9---5--|
E |-7777777--7777777--0-8--0-5-0-7-0-3--|

Riff A                    Riff B
Viviendo bajo el alcance, De la ira despreciable
Rif A                  Riff B
Debo encontrar al sol, El camino a perdurar,
Riff A               Riff B
Soportar la miseria, Desgarrando mis entrañas
Riff A                  Riff C
Anclado en mis piernas, Por sobre toda la tierra

Riff D

E |-----------------------------------|
B |-----------------------------------|
G |-----------------------------------|
D |-----------------4-----------------|
A |-2--------2------2-5--------5-4-3--|
E |-0--0-0-0-0--0-0---3--3-3-3-3-2-1--|

E |-----------------------------------|
B |-----------------------------------|
G |-----------------------------------|
D |---------------4-5-7--------2-4-5--|
A |-2--------2----2-3-5--5-5-5-0-2-3--|
E |-0--0-0-0-0--0---------------------|

Riff D
Recordando soy esclavo
Riff D
Del pandemonium social

Igual que la primera vez?

Desarrollo malogrado, ideas irresponsables,
Manteniendome al costado, de mentes en decadencia?

Recordando soy esclavo
Del pandemonium social,

Riff E

E |---------------------------|---------------------------|
B |---------------------------|---------------------------|
G |---------------------------|---------------------------|
D |-------------------5---4-5-|-------------------5-9-7---|
A |-2--------5--2-2-2-3-5-2-3-|-2--------5--2-2-2-3-7-5-7-|
E |-0--2-2-2-3----------3-----|-0--2-2-2-3--------------5-|

Riff E
Si el mañana se alterna, por consebir sin pericia
Riff E
Tu espiritu combativo, es el que hará justicia?

Solo:

E |-7t5-7t3-7t2-7t0-7t2-7t3-7t5-7t3-7t2-7t3//-------------|
B |-----------------------------------------------5-7-8-7-|
G |----------------------------------------------4--------|
D |---------------------------------------------4---------|
A |--------------------------------------------2----------|
E |-------------------------------------------------------|

E |--------2--0-0-3//--0-0-5//--0-0-7//---|
B |-8-7-5---------------------------------|
G |---------------------------------------|
D |---------------------------------------|
A |---------------------------------------|
E |---------------------------------------|

E |-7-8-7-5-7-5-3-5-3-2-3-2-0-2-0------------|
B |-------------------------------4-5-4------|
G |-------------------------------------4//--|
D |------------------------------------------|
A |------------------------------------------|
E |------------------------------------------|

E |-7-8-5-7-3-5-3-2-0-3-2-0-----------------------------|
B |-------------------------3--0--3--5--7--8--7---8-7-5-|
G |-----------------------------------------------------|
D |-----------------------------------------------------|
A |-----------------------------------------------------|
E |-----------------------------------------------------|

E |-----5-----5-7---5---5---------------5----------|
B |-7-8-----8---------8---8--7--8---7-8-----8-7----|
G |---------------------------------------------7--|
D |------------------------------------------------|
A |------------------------------------------------|
E |------------------------------------------------|

E |-7-8-10-8-7----7-----------|
B |------------10---10-8-7//--|
G |---------------------------|
D |---------------------------|
A |---------------------------|
E |---------------------------|

E |------------------------------------------------------|
B |12t85858-12t85858-12t85858-12t85858-12t85858-12t85858-|
G |------------------------------------------------------|
D |------------------------------------------------------|
A |------------------------------------------------------|
E |------------------------------------------------------|

E |------------------7-5-7---7---7---7------|
B |12t85858-12t85858-------8---7---5---4//--|
G |-----------------------------------------|
D |-----------------------------------------|
A |-----------------------------------------|
E |-----------------------------------------|

E |14t7107107-15t7107107-15t7107107-15t71071071015t7107107|
B |-------------------------------------------------------|
G |-------------------------------------------------------|
D |-------------------------------------------------------|
A |-------------------------------------------------------|
E |-------------------------------------------------------|

E |-1215---------1215---------1215-----------121512------|
B |-----12151215-----12151215-----12151215-15------121512|
G |------------------------------------------------------|
D |------------------------------------------------------|
A |------------------------------------------------------|
E |------------------------------------------------------|

E |-1512----15121512----15121512----15121512----------|
B |-----1215--------1512--------1512--------1512------|
G |---------------------------------------------14//--|
D |---------------------------------------------------|
A |---------------------------------------------------|
E |---------------------------------------------------|

Ahora repite todo desde la primera estrofa?

De soñar a primitivo, de comodín a propio as
Alzando el sentimiento, que vive en mí por demás.

Riff D
Recuerdalo si eres esclavo
Riff D
Nunca te olvides de combatir
Riff D
Recuerdalo ser para siempre
Riff D
El reflejo de tu sentir.

Riff C - E5

Y fin?

Cualquier consulta o correpcion a mi E-mal: Juannacho_m@
Suggest correction
Give kudos to tab author, rate the tab!
1 2 3 4 5
comments
print report bad tab
guest
Wanna post a correction for this tab? Suggest correction