Oops, an error
Loading. Please wait.

Malon Mastizo Tab

67 views 1 this week
no commentswrite comment
1 2 3 4 5
3 more votes to show rating
add to favorites
launch autoscroll
font size
0
reset
how to read this tab
guitar tuner
×
Best way to learn
"Malon Mastizo"
Autoscroll
slow
fast
+/-
esc
set tempo
stop
Intro: Tocar cuatro veces

 E|------------------------------------------|
 B|------------------------------------------|
 G|--9\7--9---7--/--9---12---9\7/9--7/9------|
 D|--9\7--9---7--/--9---12---9\7/9--7/9--8---|
 A|--7\5--7---5--/--7---10---7\5/7--5/7--8---|
 E|-------0------------------------------6---|

 Por la negrada cansada y hambrienta...

 BASE1:

 E|-----------------|X3|-------------------| C
 B|-----------------|  |-------------------| U
 G|-----------------|  |----------------10-| A
 D|-----------------|  |----------------10-| T
 A|------------7---7|  |------------7---8--| R
 E|--0-0-0-0-0-0-0-0|  |--0-0-0-0-0-0-0----| O

 E|-----------------|X3|-------------------|
 B|-----------------|  |-------------------| V
 G|-----------------|  |-------------------| E
 D|-----------------|  |----------------8--| C
 A|------------7---7|  |------------7---8--| E
 E|--0-0-0-0-0-0-0-0|  |--0-0-0-0-0-0-0-6--| S

 ESTRIBILLO:CON INTRO X2

 Cantado sobre base 1 X2

 Acorralados por el egoismo...

 ESTRIBILLO:CON INTRO X4

 Base2 del solo:(la saque mas o menos)

 E|--------------------------------------|
 B|--------------------------------------|
 G|--------------------------------------|
 D|--------------------------------------|
 A|----------7^8^7------7^8^7------7^8^7-|
 E|--0-0-0--0-----0-0--0-----0-0--0------|

 E|-----------|
 B|-----------|
 G|-----------|
 D|----7------|
 A|----5----8-|
 E|-0-0-0-0-6-|

 INTRO X4

 BASE1:X2

 Hoy somos miles los que le cantamos...

 INTRO:HASTA EL FINAL


            LEO (AXL ROSE)

        leognr@
Suggest correction
Give kudos to tab author, rate the tab!
1 2 3 4 5
comments
print report bad tab
guest
You may want to rate the tab now too:
select rating
Wanna post a correction for this tab? Suggest correction