Oops, an error
Loading. Please wait.

Sobaco Ilustrado Tab

by Malon
65 views 1 this week
no commentswrite comment
1 2 3 4 5
3 more votes to show rating
add to favorites
launch autoscroll
font size
0
reset
how to read this tab
guitar tuner
×
Best way to learn
"Sobaco Ilustrado"
Autoscroll
slow
fast
+/-
esc
set tempo
stop
Intro
-----------------------------------------------------------------------------------
-----------------------------------------------------------------------------------
-----------------------------------------------------------------------------------
--2---2--------------------------------------- 2----2------------------------------
--2---2-----5---6---7---7---6---5--4-------2---2------5---6---7---7---6---8--------
--0-- 0-----5---6---7---7---6---5--4-------0---0----- 5---6---7---7---6---8--------

-----------------------------------------------------------------------------------
-----------------------------------------------------------------------------------
-----------------------------------------------------------------------------------
--2---2--------------------------------------- 2----2------------------------------
--2---2-----5---6---7---7---6---5--4-------2---2------5---6---7---7---6---5~~~~----
--0-- 0-----5---6---7---7---6---5--4-------0---0----- 5---6---7---7---6------------

Repite la intro 2 veces

-----------------------------------------------------------------------------------
-----------------------------------------------------------------------------------
-----------------------------------------------------------------------------------
--2--2--2--2---2----------2--2--2--2--2----------2---2---2--------2----2-----2-----
--2--2--2--2---2----------2--2--2--2--2----------2---2---2--------2----2-----2-----
--0--0--0--0---0----------0--0--0--0--0----------0h--0h--0--------0h---0h----0-----
no se bien cuantas veces lo hace pero se van a dar cuanta escuchando la canción

(h) mitad de la nota

Me ves a la mañana saliando...............
---------------------------------------------------------------------------------
---------------------------------------------------------------------------------
-2--2--2--2--2--2--2--2--2--2--2--2--2--2--2-------------------------------------
-2--2--2--2--2--2--2--2--2--2--2--2--2--2--2----7--6--5--------------------------
-0--0--0--0--0--0--0--0--0--0--0--0--0--0--0----7--6--5--------------------------

Clarín bajo el sobaco cansado de andar..................
---------------------------------------------------------------------------------
---------------------------------------------------------------------------------
---2--2--2--2--2--2--2--2--2--2--2--2--2--2--2--2--------------------------------
---2--2--2--2--2--2--2--2--2--2--2--2--2--2--2--2---7--6--5----------------------
---0--0--0--0--0--0--0--0--0--0--0--0--0--0--0--0---7--6--5----------------------
Es igual con todas las estrofas

ESTRIBILLO

Es mi sustento es lo que yo quiero conseguir.................. 
-----------------------------------------------------------------------------------
-----------------------------------------------------------------------------------
-----------------------------------------------------------------------------------
--2---2--------------------------------------- 2----2------------------------------
--2---2-----5---6---7---7---6---5--4-------2---2------5---6---7---7---6---8--------
--0-- 0-----5---6---7---7---6---5--4-------0---0----- 5---6---7---7---6---8--------
Suggest correction
Give kudos to tab author, rate the tab!
1 2 3 4 5
comments
print report bad tab
guest
You may want to rate the tab now too:
select rating
Wanna post a correction for this tab? Suggest correction