Oops, an error
Loading. Please wait.

Corazonada Chords

7 views 1 this week
no commentswrite comment
1 2 3 4 5
3 more votes to show rating
add to favorites
×
Save as Personal and add changes to this tab that will be seen only by you. Learn more ›
×
You can save this tab as Personal to edit and correct it or add notes. All changes will be seen only by you. Learn more »
save as personal
new!
launch autoscroll
font size
0
reset
transpose
0
reset
simplify chords
display chords
guitar tuner
Autoscroll
slow
fast
+/-
esc
set tempo
stop
Strumming
There is no strumming pattern for this song yet. and get +5 IQ
Acá pongo el acorde y el punteo de este temazo.

Explicación: tocan dos guitarras, la primera hace una
vuelta de la primer intro, y después la primera parte
de la segunda tablatura. Después hace otra vuelta de la
primera y para terminar hace la segunda parte de la
tablatura de abajo.

*Intro - Guitarra 1:

E  |----------------------------------||
B  |----------------------------------||
G  |----------------------------------||
D  |----------------------------------||  X2
A  |-3s7--5----3--2-3-2-3-2-5-3-2-----||
E  |------------------------------3---||

E  |---------------|------------------||
B  |---------------|------------------||
G  |---------------|------------------||
D  |----------5----|------------5s7-5-||
A  |-3s7--5-7------|---3s7--5-7-------||
E  |---------------|------------------||

*Intro - Guitarra 2:

G - Em x4

Nota: es preferible hacerlo con los acordes en la septima sejilla.

*Verso - Guitarra 1

G       C9    G        C9
Mañanas de sol, con frío o calor.
G       C9        RE/REsus2/REsus4/RE
Todos como hormigas llendo al trabajo.
G       C9    G        C9
Con 20, 40 o 60, nada los alegra.
G       C9        RE/REsus2/REsus4/RE
Si son esclavos, de lunes a viernes.

*Verso - Guitarra 2

e  |-3-3-3-3-0-0-0-0------------------||
B  |3-3-3-3-3-3-3-3-------------------||
G  |----------------------------------|| X3 y RE/REsus2/REsus4/RE
D  |----------------------------------||
A  |----------------------------------||
E  |----------------------------------||


C              D     G           D/FA#        Em
Tengo una corazonada, no es que no este haciendo nada.
C                     D
Tengo que mostrarles mil canciones,
C                      D                 C DOm G D(parando cuerdas)
ya me cansé de expresarme por los rincones.


*Toda la intro nuevamente

C                 D     G           D/FA#        Em
No es que yo sea un vago, para mi esto significa estar peleando
C                     D
Aunque no tenga factura A, B o C,
C                      D
Aunque no llegue solo al día quince del mes.
C                      D
Aunque no quiera vestirme de traje,
C                      D          C DOm G D(parando cuerdas)
porque no necesito ningún equipaje.

* DO9 RE/FA# DOm REsus2 REsus4
e| 0 | 0   | 3 | 0    | 2/3
B| 3 | 3   | 4 | 3    | 3
G| 0 | 2   | 5 | 2    | 2
D| 2 | 0   | 5 | 0    | 0
A| 3 | 0   | 3 | 0    | 0
E| 0 | 2   | 0 | 0    | 0

*Notas:
Dom es con cejilla (tercer espacio).
REsus4 es un RE4 común y corriente.
Al final de los versos para las cuerdas cuando el rasguido baja.
Cuando cambia de REsus2 a REsus4 rasguea más rapido para arriba y abajo.


Desde Santa Fé, Salúd!
Suggest correction
Give kudos to tab author, rate the tab!
1 2 3 4 5
comments
print report bad tab
guest
Wanna post a correction for this tab? Suggest correction