Oops, an error
Loading. Please wait.

Hasta El Final Tab

1 view 1 this week
no commentswrite comment
1 2 3 4 5
3 more votes to show rating
add to favorites
launch autoscroll
font size
0
reset
how to read this tab
guitar tuner
Autoscroll
slow
fast
+/-
esc
set tempo
stop
Help us to improve Ultimate-Guitar.com Take our survey!
×
Las letras entre parentesis que aparecen en la cancion
son los Arreglos que estan escritos mas abajo

--------------------------------------------

Hoy no hay ninguna que valga la pena
mientras tanto yo sumo mis penas
y no me gusta perder cuando puse todo
y si no llego te voy a tener que correr

Punteo 1
1|----------------------------------
2|----10-----10-----10-----10-------
3|9b11---9b11---9b11---9b11---9b11b9
4|----------------------------------
5|----------------------------------
6|----------------------------------

1| --------------------------------
2| --------8-----8-----8-----------
3| --7---7b9---7b9---7b9---7b9b7--5       (x2)
4| --------------------------------
5| --------------------------------
6| --------------------------------

Hoy no hay ninguna que valga la pena (A)
mientras tanto yo sumo mis penas
y no me gusta perder cuando puse todo
y si no llego te voy a tener que correr

Punteo 1 - Cambia el final, en la segunda vuelta hace:
1|-----------------------------------
2|----10-----10-----10-----10--------
3|9b11---9b11---9b11---9b11---9b11b9-
4|-----------------------------------
5|-----------------------------------
6|-----------------------------------

1|---------------------------------
2| ----------8-----------8----------
3| -7---7b9---9b7--5--7b9-9b7--5----
4| ------------------------------7-5
5| ---------------------------------
6| ---------------------------------

voy a seguir hasta el final (B)
voy a seguir sin pensar (C)
voy a seguir hasta el final (D)
voy a seguir sin pensar

Me mostraste un cielo de estrellas (A)
y te bajaste en la primera estacion
     (E)
yo sabia que algo no me cerraba
ahora te fuiste y va a ser mejor

Punteo 1

voy a seguir hasta el final (F)
voy a seguir sin pensar  [C]
voy a seguir hasta el final (G)
voy a seguir sin pensar

Solo

1|----------------------------------------
2|-8-7------------------------------------
3|-----9-7---7--7p9-7-----7-9-7-----7-7-7-
4|---------9----------7p9-------5p7-------
5|----------------------------------------
6|----------------------------------------

1|----------------------------------------
2|----------------8---------8-7-----------
3|----7-----7--7b9-9b7--5-------9-7---7-9-
4|5p7---5p7-------------------------9-----
5|----------------------------------------
6|----------------------------------------


1|---------------------------------------
2|----10---------------------------------
3|-9b11-11b9--7-------7-5---------5-7-5--
4|------------------------5-7------------
5|---------------------------------------
6|---------------------------------------

1|------------------------------
2|----------7-8-8-8-7-----------
3|----5-7-9-----------9-7-9-7-7-
4|5-7---------------------------
5|------------------------------
6|------------------------------

1|-------------------------------------
2|-------------------------------------
3|-----7-7-75-5-54-4-42-2-2-0-------
4|-7p9---------------------------4-2-4-
5|-------------------------------------
6|-------------------------------------

1|-----------12-12-----12------12-12------10-----10-
2|-----------12-12-----12------12-12------10-----10-
3|------14b16-----14b16---14b16------12b14--12b14---
4|--------------------------------------------------
5|--------------------------------------------------
6|--------------------------------------------------

1|------10--------8------8------8---
2|------10--------8------8------8---
3|--12b14----10b12--10b12--10b12----
4|----------------------------------
5|----------------------------------
6|----------------------------------

Voy a seguir hasta el final (H)
Voy a seguir sin pensar
Voy a seguir hasta el final (I)
Voy a seguir sin pensar (C)

Voy a seguir hasta el final (J)
Voy a seguir sin pensar
(K)
Voy a seguir hasta el final
Voy a seguir sin pensar

ARREGLOS:


   (A)              (B)
1|---------------|------10------------|
2|----6----------|10b12---12b10-8---8-|
3|5b7--7b5-3---5-|----------------9---|
4|-----------5---|--------------------|
5|---------------|--------------------|
6|---------------|--------------------|

   (C)             (D)
1|10b12--10-7-10-|----------|
2|---------------|----8---8-|
3|---------------|7p9---9---|
4|---------------|----------|
5|---------------|----------|
6|---------------|----------|

     (E)
1----3-----3-----3----------------------8---8
2----3-----3-----3----------------------8---8
35b7---5b7---5b7---7-7-7-7p5-3---5--7/9---9--
4------------------------------5-------------
5--------------------------------------------
6--------------------------------------------


   (F)
1|---------8----------------|
2|----8-10---10b12b10-8---8-|
3|8-9-------------------9---|
4|--------------------------|
5|--------------------------|
6|--------------------------|


   (G)
1|-----------------------------|
2| ----8----8----8----8---8---8|
3|-7p9--7p9--7p9--7p9--7p9-7p9-|
4| ----------------------------|
5| ----------------------------|
6| ----------------------------|

  (H)
1|---------------------------------------------------------|
2|10b12-10b12-10b12-10b12b10-8-----------------------------|
3|-----------------------------9--7--9-7-5-4-2-0-2-0-----0-|
4|---------------------------------------------------0-2---|
5|---------------------------------------------------------|
6|---------------------------------------------------------|


 (I)
1|-----10------------------10-------------|
2|10b12--12b10-8---8-10b12----12b10-8---8-|
3|---------------9--------------------9---|
4|----------------------------------------|
5|----------------------------------------|
6|----------------------------------------|


 (J)
1|----8------10-------15-|
2|-----------------------|
3|7/9---9/11----11/16----|
4|-----------------------|
5|-----------------------|
6|-----------------------|


  (K)
1|8-7----------8-7-------------8-7----------
2|---8-----8-------8-----8---8-----8-----8--
3|-----7-9---9-------7-9---9---------7-9---9
4|------------------------------------------
5|------------------------------------------
6|------------------------------------------

1|-8-7-------------8-7----------8-7------------
2|-----8-----8---8----8-----8-------8-----8---8
3|-------7-9---9--------7-9---9-------7-9---9--
4|---------------------------------------------
5|---------------------------------------------
6|---------------------------------------------

1|-8-7-----------8-7---8-7---8-7--8-7--
2|-----8-----8-------8-----8----8-----8 (etc)
3|-------7-9---9-----------------------
4|-------------------------------------
5|-------------------------------------
6|-------------------------------------


---------------------------------------------------------------------------

GRACIAS A FER DE MALOS AIRES POR LOS TABS!
Suggest correction
Give kudos to tab author, rate the tab!
1 2 3 4 5
comments
print report bad tab
guest
You may want to rate the tab now too:
select rating
Wanna post a correction for this tab? Suggest correction