Oops, an error
Loading. Please wait.

Asignatura Pendiente Tab

17 views 1 this week
no commentswrite comment
1 2 3 4 5
3 more votes to show rating
add to favorites
launch autoscroll
font size
0
reset
how to read this tab
guitar tuner
×
Best way to learn
"Asignatura Pendiente"
Autoscroll
slow
fast
+/-
esc
set tempo
stop
Este tema aborda lo que es el bullyn en los colegios, y se los dejo para
que lo toquen un millon de veces:

INTRO:  A F G E
|---------------------------|
|---------------------------|
|---------------5-5-4-------|
|-7-7--7-5-5--5-------5-----| X3
|---------------------------|
|---------------------------|

|---------------------------|
|---------------------------|
|---------------5-5-7-------|
|-7-7--7-5-5--5-------7-----|
|---------------------------|
|---------------------------|


A                  F
Nadie me entiende, todos golpean
G                  E
No es suficiente otra vuelta de tuerca
A                  F
Al día siguiente la misma mierda
G                  E
No te defiendes porque no vale la pena
F                     C
Que es lo que quieren que coño esperan
G                    G#
que un día reviente y se me vaya la cabeza
F                           C - E
no se cuanto mas voy a poder aguantar

A F G E
|---------------------------|
|---------------------------|
|---------------5-5-4-------|
|-7-7--7-5-5--5-------5-----| X3
|---------------------------|
|---------------------------|

|---------------------------|
|---------------------------|
|---------------5-5-7-------|
|-7-7--7-5-5--5-------7-----|
|---------------------------|
|---------------------------|

A                  F
lo que mas duele no es la violencia,
G                  E
es este ambiente de total indiferencia
A                  F
Cuantos valientes tirando piedras
G                  E
Constantemente voy contra viento y marea
F                     C
Inconvenientes, adolescencia
G                    G#
Ser diferente tiene consecuencias
F                     C - E          A...
No se cuanto mas voy a poder aguantar

A               C
Asignatura pendiente
F                         D - E
Parece que hoy tampoco a habido suerte
A               C
Aunque no me quedan fuerzas
F                D - E
Yo sigo adelante entre insultos y collejas
A         F       G                      E
aaaaaaaaaaaaaaaa sigo adelante entre insultos y collejas
A         F       G                      E
aaaaaaaaaaaaaaaa sigo adelante entre insultos y collejas

A A C D F C C G
A C F D - E X4

A                          F
Intenso, cada vez resulta mas intenso
                G
Y yo no puedo y mira que lo intento
E
Me estoy ahogando por dentro
A                          F
Intento, cada vez resulta mas intenso
                G
Y yo no puedo y mira que lo intento
E
Me estoy ahogando

A               C
Asignatura pendiente
F                         D - E
Parece que hoy tampoco a habido suerte
A               C
Aunque no me quedan fuerzas
F                D - E
Yo sigo adelante entre insultos y collejas
A         F       G                      E
aaaaaaaaaaaaaaaa sigo adelante entre insultos y collejas
A         F       G                      E
aaaaaaaaaaaaaaaa sigo adelante entre insultos y collejas

A A C D F C C G   A/
Suggest correction
Give kudos to tab author, rate the tab!
1 2 3 4 5
comments
print report bad tab
guest
You may want to rate the tab now too:
select rating
Wanna post a correction for this tab? Suggest correction