Oops, an error
Loading. Please wait.

Jaula De Cristal Chords

17 views 1 this week
no commentswrite comment
1 2 3 4 5
3 more votes to show rating
add to favorites
launch autoscroll
font size
0
reset
transpose
0
reset
display chords
guitar tuner
Autoscroll
slow
fast
+/-
esc
set tempo
stop
Help us to improve Ultimate-Guitar.com Take our survey!
×
"Putas, putas pero honradas aun que nos
 escierren en Jaulas de Cristal"

B                     G
Vivo encerrada en una jaula de cristal
D                 A  F#
ensayando todo mi repertorio
B                     G
dia tras dia me golpea la realidad
D                 A  F#
y aun así no os regalaré mi odio.

Base :B G D A
|-------------------------------------------------------------------|
|-------------------------------------------------------------------|
|--------2--------------------------------2-------------------------|
|----------4--------------------------------2-----------------------|
|--2-4-5--------2-4-5-7-5-4-5-4-----2-4-5--------2-4-5-7-5-4-5-4----|
|---------------PM-.-.-.-.-.-.-.-----------------PM-.-.-.-.-.-.-.---|

B                      G
Tanto la plebe como la élite social
D                      A
todos requieren algún ke otro servicio
B                      G
llegan a casa y se ponen el disfraz
D                      F#
y con él, todos los trapos sucios.

G               D
Como los gatos siempre caigo de pie
A               B
me he acostumbrado a no desfallecer
G                D
inmune al desaliento elegí perseverar
A                 B       G
y si no estais de acuerdo ¿Teneís algo ke objetar?

Base :B G D A
|-------------------------------------------------------------------|
|-------------------------------------------------------------------|
|--------2--------------------------------2-------------------------|
|----------4--------------------------------2-----------------------|
|--2-4-5--------2-4-5-7-5-4-5-4-----2-4-5--------2-4-5-7-5-4-5-4----|
|---------------PM-.-.-.-.-.-.-.-----------------PM-.-.-.-.-.-.-.---|

B                      G
Ante la incertidumbre, ante la adversidad,
D                      A
me aferro a la vida con uñas y dientes
B                      G
ingenio agudizado por necesidad
D                      A   F#
y yo de ingenio, tengo más ke suficiente.

G               D
No me averguenzo, ni me pienso eskonder
A               B
yo también tengo sentimiento entre hueso y la piel
G               D
me miras con desprecio y falsa pulcritud moral
A               B       G
luego vienes y pagas como todos los demás.

Solo:B G D A

B
No hay remedio cuando no hay enfermedad
G
kereís kitar del medio a kien no podeís alienar
D
contra tiempos, contra necios, con traspiés
A          F#
interpreto convencida mi papel.
(Con la figura del principio como base)
convencida mi papel.

B                 G
Vivo encerrada en una jaula de cristal...

Ahora lo que hay ke tener en cuenta para que suene igual es que el
B se toca asi:
              d|--4--|
              a|--2--|
              E|--2--|

Suerte :)
Suggest correction
Give kudos to tab author, rate the tab!
1 2 3 4 5
comments
print report bad tab
guest
You may want to rate the tab now too:
select rating
Wanna post a correction for this tab? Suggest correction