Oops, an error
Loading. Please wait.

Payasos De Alquiler Tab

17 views 1 this week
no commentswrite comment
1 2 3 4 5
3 more votes to show rating
add to favorites
launch autoscroll
font size
0
reset
how to read this tab
guitar tuner
×
Best way to learn
"Payasos De Alquiler"
Autoscroll
slow
fast
+/-
esc
set tempo
stop
Este es el tema ke cierra el disco La Ventana Indiscreta y se las ofreco
para ke la token y la disfruten... Pero traten de ponerse las pilas
y sacar canciones ¬¬

Intro:

  C         D            C       D
|----------------------------------------------------|
|----------------------------------------------------|
|------4--5/7-5--4--2------4--5/7-5~-----------------|
|---2--------------------2---------------------------|
|----------------------------------------------------|
|----------------------------------------------------|
  C         D          B
|----------------------------------------------------|
|----------------------------------------------------|
|------4--5/7-5--4--2--4~~~~-------------------------|
|---2------------------------------------------------|
|----------------------------------------------------|
|----------------------------------------------------|

E                                 C
El que pincha y corta es el mismo que parte y reparte,
G
nos quedamos sin pan y con tortas,    (Estas notas son en una cuerda
D                                      son [ch]A[/ch] tónica del acorde ya que
una mano detrás y la otra delante.     aqui suena el bajo y un arpegio)

              E(Pm)
Fingiré que no me importa
              C(Pm)
aunque por dentro me hierba la sangre,
           G(Pm)
Que palabra tiene mi boca
                D(Pm)      B
y a mí me sobran cojones y aguante.

  C                  D
Hemos vuelto a naufragar entre promesas de cristal
  B                  E
que se rompen antes de caer,
  C                      D
como me he dejao engañar, estoy empezando a pensar,
  B                  C      D
que somos payasos de alquiler y poca monta.

G(Pm)....

      E                         C
Con humor y sin desvaríos, no me sentaré a lamentarme,
      G
que pa marrones ya tengo los míos,
      D
y con los míos ya tengo bastante.
  E
Apuro el último trago y me Viro :)
       C
con mi música a otra parte,
        G
todo el tiempo invertido contigo
    D                   B
fue tiempo que nunca debí regalarte.

  C                  D
Hemos vuelto a naufragar entre promesas de cristal
  B                  E
que se rompen antes de caer,
  C                      D
como me he dejao engañar, estoy empezando a pensar,
  B                  C      D
que somos payasos de alquiler y poca monta.

SOLO: G - C - G - E-D x2

 C (Sonando)
Hemos vuelto a naufragar.....Hemos vuelto a naufragar!!!!
xx  C                      D
como me he dejao engañar, estoy empezando a pensar,
  B                  C      D
que somos payasos de alquiler

  C         D            C       D
|----------------------------------------------------|
|----------------------------------------------------|
|------4--5/7-5--4--2------4--5/7-5~-----------------|
|---2--------------------2---------------------------|
|----------------------------------------------------|
|------------------- ---------------------------------|
     payasos de alquiler   payasos de alquiler
  C         D          B  BbBBBBBBB  B - C....
|----------------------------------------------------|
|----------------------------------------------------|
|------4--5/7-5--4--2--4~~~~-------------------------|
|---2------------------------------------------------|
|----------------------------------------------------|
|----------------------------------------------------|

Y eso es todo... cha chan!!!!
Suggest correction
Give kudos to tab author, rate the tab!
1 2 3 4 5
comments
print report bad tab
guest
You may want to rate the tab now too:
select rating
Wanna post a correction for this tab? Suggest correction