Oops, an error
Loading. Please wait.

Ranchera Bass Tab

130 views 1 this week
no commentswrite comment
1 2 3 4 5
3 more votes to show rating
add to favorites
launch autoscroll
font size
0
reset
guitar tuner
×
Best way to learn
"Ranchera"
Autoscroll
slow
fast
+/-
esc
set tempo
stop
Intro:

G ------------------------------
D ---------3-2-0----------------
A ---3---3-------3---3-1-1-3----
E -----3-----------3------------ x4

Intro con ska:

G --------------------------
D --------------------------
A ---3---3---3---3-1-1------
E -----3---3---3------------ x4

Qué te pasa juanillo que te pasa...    Q m he ido a una mani antifascista

G -------------------                  -------------------------
D -------------------                  -------------------------
A ---3---3---3---3---                  ----2---2---2------------
E -----3---3---3-----                  --3---3---3--------------

¿Quienes fueron cuate?
G ------------
D ------------
A ---3-2-1-0--
E ------------

Los que van uniformaos...  La patrulla antidisturbios...

G --------------------------------------------------------
D ---------------------------------------------------------
A ----0---0--0-----0---------2--2-3---3--------------------
E --1---1---1---1----------3---3----3--3--------------------

...le ha dao         Por ponerse algo farruco...

G ------------------------------------------
D ------------------------------------------
A ----------2---2-------------------------3-
E --------3---3------------1---------3------


Ahora ritmo punk:

Si no hay derecho...
G ---------------------------------------------
D ---------------------------------------------
A ---333333333--------------33333333333-3-2-1-0
E -------------333333333333--------------------

Los que van uniformaos...
G ------------------------------------------------------------------
D ------------------------------------------------------------------
A -------------------------33333333-33333333-------------------3333-
E --111111111111--33333333-------------------33333333-1111-3333-----

Ya no puedo ni dormir...
G -----------------------------------------------------------
D -----------------------------------------------------------
A -------------------------33333333-33333333-----------------
E --111111111111--33333333-------------------33333333-1-3----
                                                         cabrones!
Aquí tras el parón:

G ---------------------------------------
D ---------------------------------------
A --3---------2-3------3-------3-----3---
E ----0-1-2-3------3-1---3------3-1----3-

A partir de aki el bajo va haciendo esta linea todo el tiempo
hasta cuando canta "Andale comapdre ya llegó la policía" y
hasta el final.

G -------------4----2-------------4-5-7--
D ------2-3-5---5-3--------2-3-5---------
A --3-5----------------3-5---------------
E ---------------------------------------
Suggest correction
Give kudos to tab author, rate the tab!
1 2 3 4 5
comments
print report bad tab
guest
You may want to rate the tab now too:
select rating
Wanna post a correction for this tab? Suggest correction