Oops, an error
Loading. Please wait.

En Tono Gris Chords

by Malpaso
4 views 1 this week
no commentswrite comment
1 2 3 4 5
3 more votes to show rating
add to favorites
launch autoscroll
font size
0
reset
transpose
0
reset
display chords
guitar tuner
×
Best way to learn
"En Tono Gris"
Autoscroll
slow
fast
+/-
esc
set tempo
stop
INTRO
  G#      C#          G#         F#           A#m G#
       1|----------------------------------------------------|
       2|----------------------------------------------------|
       3|---------6----------6----------6---6-8^8^8^-8-6-----|
       4|-4h6-6-8---8-6--6-8---8-6--6-8---8--------------8-6-|
       5|----------------------------------------------------|
       6|----------------------------------------------------|
          C#          G#         F#           A#m G#      C#
       1|----------------------------------------------------|
       2|----------------------------------------------------|
       3|---------6----------6----------6---6-8^8^8^-8-6---6-|
       4|-4h6-6-8---8-6--6-8---8-6--6-8---8--------------8---|
       5|----------------------------------------------------|
       6|----------------------------------------------------|

ESTROFA
C#                    A#m        F#  G#
 Te escondiste tantos años en silencio
F#        A#m           G#
para escaparte de los gritos al susurro
C#                    A#m        F#  G#
 si ultrajaron con heridas tu pureza
F#        A#m         G#
cuando soplaste suavemente un mundo oculto

ESTRIBILLO

D#m                     C#          G#
 y que fue del trino aquel si no bajaste aun tus brazos
D#m                     C#                           G#
 porque engrandecen su ambicion aun sabiendo que hay voces que van callando
D#m                   C#                        G#
 alguien dijo: ironico es pensar que si hay un cambio es todo distinto
D#m                    C#                   G#
 en el abuso nunca hubo poder ni en el progreso egoismo

INTRO

ESTROFA

y asi miraste en tono gris su verde inmenso
y se durmio entre los limites lo soñado
no hubo intencion de abandonar lo incorrecto
cuando quedo aquello absurdo entre brazos

ESTRIBILLO

y que fue del trino aquel si no bajaste aun tus brazos
porque engrandecen su ambicion aun sabiendo que hay voces que van callando
alguien dijo: ironico es pensar que si hay un cambio es todo distinto
en el abuso nunca hubo poder ni en el progreso egoismo

A#m       F#       C#    G#
 se pisotean las cabezas
A#m           F#              C#    G#
 si es que su vida aun no cambio
A#m       F#       C#    G#
 creyeron todo perfecto
A#m         F#             C#    G#
 pero el esclavo aun no llegó
D#m                F#      G#
 no entienden el precio de su felicidad
D#m        F#                  G#              F#hG# F#hG#
 solo presienten que en el placer hay algo más

SOLO

C# G# F# A#m G# X 4

C#

1|--------------------------------------------------|----|
2|-9-9-9-9-11-11-9-9--------------------------------|----|
3|-------------------11-11-10-11-10-8----10-10-8----|-X2-|
4|------------------------------------11---------11-|-X2-|
5|--------------------------------------------------|----|
6|--------------------------------------------------|----|

1|------------------------------------------------------------|
2|------------------------------------------------------------|
3|-----6----------6----------6----------6-10-10-10-10-10-8-6--|
4|-6-8---8-6--6-8---8-6--6-8---8-6--6-8----------------------8|
5|------------------------------------------------------------|
6|------------------------------------------------------------|

1|---------------------------------------------------------|
2|-9-9-9-9-11-11-9-9---------------------------------------|
3|-------------------11-11-10-11-10-8----10-10-8---------6-|
4|------------------------------------11---------11--6-8---|
5|---------------------------------------------------------|
6|---------------------------------------------------------|

MALPASO esta en lacuerda!!!
LO SIMPLE PUEDE SER FUNDAMENTA
Camilo87--->un abrazo a la Familia Malpaso
Suggest correction
Give kudos to tab author, rate the tab!
1 2 3 4 5
comments
print report bad tab
guest
You may want to rate the tab now too:
select rating
Wanna post a correction for this tab? Suggest correction