Oops, an error
Loading. Please wait.

Guerrero Tab

17 views 1 this week
no commentswrite comment
1 2 3 4 5
3 more votes to show rating
add to favorites
launch autoscroll
font size
0
reset
how to read this tab
guitar tuner
Autoscroll
slow
fast
+/-
esc
set tempo
stop
Help us to improve Ultimate-Guitar.com Take our survey!
×
[INTRO] (Bajo)

   A  D            C#m    D            A
e|----------------------------------------
B|----------------------------------------
G|----------------------------------------
D|----/7~-7/9-7-6-7-6~-6h7----------------
A|-/7~--------------------7~-7/9-7-5-4-7~-
E|----------------------------------------

         D           C#m      D C# D E
e|-------------------------------------|
B|-------------------------------------|
G|----------------------------7-6-7-9~-|
D|-------7~-7/9-7-6-7-6~-6h7-----------|
A|----7-9------------------------------|
E|-7h9---------------------------------|

[BASE ARMONICA]

   A  D C#m  D E D   A  D C#m D   E D C# A
e|-----------------------------------------|
B|-----------------------------------------|
G|----7--6--77-9-7------7--6--777-9-7-6----|
D|-7--7--6--77-9-7---7--7--6--777-9-7-6--7-|
A|-7--5--4--55-7-5---7--5--4--555-7-5-4--7-|
E|-5-----------------5-------------------5-|

A                 D             C#m   D
Guerrero que con la derrota se vió nacer
       A      D
y hoy vive para cambiar
C#m           D              A - D - C#m - D-E-D
...como consecuencia de caminar


A                D          C#m   D
Guerrero que persigue su ideaaaaaaal
      A
a la vida sonríe
     D                 C#m   D
por mas que lo haya tratado mal


E          A
Guerrero que siente luces
   C#m       D
en la oscuridad
Bm          E
al fin del día llora
    C#m               F#m          D
se siente vivo y lo quiere aprovechar

[ARMONICA] E-A-C#m-D Bm-E-C#m-F#m-G-E despues dl bajo-> A-D-E

A         D          C#m    D
Guerrero nunca dejes de luchar
           A             D
que el fracaso está en abandonar
       C#m             D   A - D - C#m - D-E-D
y el mañana es un desafío mas


A                D             C#m    D
Guerrero que busca en una gran dimensión
              A             D
lo que otros dicen que no existe
              C#m          D
y él cree que solo se perdió

E         A                  C#m
Guerrero que se preocupa una hora
            D
y se ocupa las demas
Bm        E          C#m           F#m
cede sin justicia y al enemigo sin ley
           G                                 E
hace ... juego sabiendo que tiene todas las de perder

[FINAL]

   A  D C#m  D E D   A  D C#m D   E D C# A
e|-----------------------------------------|
B|-----------------------------------------|
G|----7--6--77-9-7------7--6--777-9-7-6----|
D|-7--7--6--77-9-7---7--7--6--777-9-7-6--7-|
A|-7--5--4--55-7-5---7--5--4--555-7-5-4--7-|
E|-5-----------------5-------------------5-|


hay partes de la letra q no entiendo, disculpen :-/
en fin, creo q está bien sacado, cualkier cosa me mandan mail a
lalos_boca20@
Aguante el Rock n' roll y nada mas,
es algo que los chetos no pueden entender!
Suggest correction
Give kudos to tab author, rate the tab!
1 2 3 4 5
comments
print report bad tab
guest
You may want to rate the tab now too:
select rating
Wanna post a correction for this tab? Suggest correction