Oops, an error
Loading. Please wait.

Lejano Sur Chords

version 1
version 1

Whole song

by Malpaso
2 views 1 this week
no commentswrite comment
1 2 3 4 5
3 more votes to show rating
add to favorites
launch autoscroll
font size
0
reset
transpose
0
reset
simplify chords
display chords
guitar tuner
×
Best way to learn
"Lejano Sur"
Autoscroll
slow
fast
+/-
esc
set tempo
stop
[INTRO] entra 1ero el bajo y dsps hace 3 vcs G-C-D-G

e|--------------------------------|
B|--------------------------------|
G|--------0-------2---------------|
D|---0-----2---0-4-4----0-2-0-----|
A|--2-2--3--3----------2-----2-0--|
E|-3------------------3---------3-|

[VERSO]

G                       C
Costó tan caro la libertad
      D               G
una fianza de almas claras
G                             C
el gritó siempre que quiso hablar
           D                  G
y hoy se ahoga en sus mismas lágrimas.

[PUENTE] iwal q la intro

Si no es inercia es ambición
ahora miramos que no hay más nada
que confundieron precio y valor
y la memoria olvidó la espada.

[PUENTE] iwal q la intro solo q patina 2 vcs C#-D

[ESTRIBILLO]

C       D         G
Lejano sur, te vacían,
      G/F#    Bm
te entregan, te desarman...
C       Am            C              D
Lejano sur, el sentimiento guarda revancha.

C       D         G
Lejano sur, te vacían,
      G/F#    Bm
te entregan, te desarman...
C       Am            C              D
Lejano sur, el sentimiento guarda revancha.

[PUENTE] x2

[VERSO]

Se van secando los laureles
y el sol que no quiere asomarse
que simple fue perderte,
que complicado va a ser recuperarte.

[PUENTE]

El entusiasmo cuando se pudo abrazar
la propia tierra sin las cadenas,
cambiándolo por vivir en sombras
cambiando el tiempo por las monedas.

[PUENTE]

[ESTRIBILLO]

Lejano sur, te vacían,
te entregan, te desarman...
Lejano sur, el sentimiento guarda revancha...

G (C-G) - D (C-G) x3 G (C-G) - D

Lejano sur, te vacían,
te entregan, te desarman...
Lejano sur, el sentimiento guarda revancha.

e|--------------------------------
B|--------------------------------
G|--------0-------2---------------
D|---0-----2---0-4-4----0-2-0-----
A|--2-2--3--3----------2-----2-0--
E|-3------------------3---------3-

e|-----------------------------|
B|-----------------------------|
G|--------0--------------------|
D|---0-----2---0---------------|
A|--2-2--3--3---3-2-0----------|
E|-3-----------------3~-(3/15)-|


Un saludo a la Familia Malpaso
cualkier cosa me mandan mail a lalos_boca20@
Aguante el Rock n' roll y nada mas,
es algo que los chetos no pueden entender!
Suggest correction
Give kudos to tab author, rate the tab!
1 2 3 4 5
comments
print report bad tab
guest
You may want to rate the tab now too:
select rating
Wanna post a correction for this tab? Suggest correction