Oops, an error
Loading. Please wait.
We have an official The Dragonborn Comes tab made by UG professional guitarists. Check out the tab »
×

The Dragonborn Comes tab

version 2
version 2

Whole song

  • Most versions from ultimate-guitar.com are easy-pl... Show more
  • Its more accurate than the others and more detailed.

Interactive

by Malukah
36,442 views 21 this week
3 commentsread comments
1 2 3 4 5
x 7
add to favorites
×
Save as Personal and add changes to this tab that will be seen only by you. Learn more ›
×
You can save this tab as Personal to edit and correct it or add notes. All changes will be seen only by you. Learn more »
launch autoscroll
font size
0
reset
how to read this tab
guitar tuner
edit
Autoscroll
slow
fast
+/-
esc
set tempo
stop
About this tab version
Most versions from ultimate-guitar.com are easy-playing-versions, this one is like the artist plays it. Was this info helpful? Yes No
Tuning: Standard, Capo 2nd fret

[Intro]
e|---------------------------------------------------------------------------|
B|---------3-----------3-----------3-----------3-----------------------------|
G|---------4-----------0-----------4-----------0-----------------------------|
D|------4-----4-----4-----4-----4-----4-----4-----4--------------------------|
A|---2-----------2-----------2-----------2-----------------------------------|
E|---------------------------------------------------------------------------|

[Verse]
e|---------------------------------------------------------------------------|
B|---------3-----------0--------3-----------3--------------------------------|
G|---------4-----------2--------4-----------4--------------------------------|
D|------4-----4-----2--------4-----4-----4-----4-----------------------------|
A|---2-----------0--------2-----------2--------------------------------------|
E|---------------------------------------------------------------------------|

[Chorus]
e|------------------2--------------------------------------------------------|
B|---------3--------3--------2--------0--------------------------------------|
G|---------4-----2-----------2--------1--------------------------------------|
D|------4-----0-----------2--------2-----------------------------------------|
A|---2-----------------0-----------------------------------------------------|
E|------------------------------0--------------------------------------------|

e|------------------2--------------------------------------------------------|
B|---------3--------3--------3--------0--------------------------------------|
G|---------4-----2-----------0--------1--------------------------------------|
D|------4-----0-----------0--------2-----------------------------------------|
A|---2-----------------------------------------------------------------------|
E|---------------------3--------0--------------------------------------------|

e|------------------2--------------------------------------------------------|
B|---------3--------3--------3--------2--------------------------------------|
G|---------4-----2-----------0--------2--------------------------------------|
D|------4-----0-----------0--------2-----------------------------------------|
A|---2--------------------------0--------------------------------------------|
E|---------------------3-----------------------------------------------------|

[Bridge]
e|---------------------------------------------------------------------------|
B|---3---3---2---0---3---0-----------3---3---2---0---3---0-------------------|
G|---4---0---2---1---0---1---3---4---4---0---2---1---0---1---3---------------|
D|---4---0---2---2---0---2---4---4---4---0---2---2---0---2---4---------------|
A|---2-------0---------------4---2---2-------0---------------4---------------|
E|-------3-------0---3---0---2-----------3-------0---3---0---2---------------|

[Outro]
e|---------------------------------------------------------------------------|
B|---------3-----------3-----3---3-------------------------------------------|
G|---------4-----------4---------4-------------------------------------------|
D|------4-----4-----4-----4------4-------------------------------------------|
A|---2-----------2---------------2-------------------------------------------|
E|---------------------------------------------------------------------------|

            
            
Suggest correction
Creating personal tab
Creating personal tab
You can edit any tab online and save it as your Personal.

You can edit, replace or remove any tab part or add personal notes – all changes will be seen only by you.

Personal tabs can be accessed anytime from any device, even offline.
Learn more »
comments
print report bad tab
3 comments total.
+1 reply
TMoreau15 52 Jan 14, 2017 12:15 AM, edited at 05:20 am

One small correction. For the intro I think it'se|------------------------------------------------------------|B|---3--------3------3----------3-----------------------------|G|---4--------2------4----------0-----------------------------|D|--4--4----4---4---4---4-----4-----4-------------------------|A|2-------2--------2---------2--------------------------------|E|------------------------------------------------------------|

(edit) I'm not 100% anymore. Both G-0 B-3 and G-2 B-3 sound good

+3 reply
TMoreau15 52 Jan 14, 2017 12:21 AM

Wow that edit fucked that up. Just ignore me lol

0 reply
rodrigueztimothee 10 5 hours ago

nice tab thanks ;)

guest
You may want to rate the tab now too:
select rating
Wanna post a correction for this tab? Suggest correction