Oops, an error
Loading. Please wait.

Robot Tab

35 views 1 this week
no commentswrite comment
1 2 3 4 5
3 more votes to show rating
add to favorites
×
Save as Personal and add changes to this tab that will be seen only by you. Learn more ›
×
You can save this tab as Personal to edit and correct it or add notes. All changes will be seen only by you. Learn more »
save as personal
new!
launch autoscroll
font size
0
reset
how to read this tab
guitar tuner
Autoscroll
slow
fast
+/-
esc
set tempo
stop
NOTA: La rola esta con distorcion y para ke se
escuche exactamente igual tienes k ponerle la distorcion.
ritmo ska pero no en toda la rola escuchenla. aki se las dejo:

En el intro la otra guitarra toca esto:(no en todaz las
versiones de esta cancion aparese este solo)
1|--10-----13-13---11-10-11--13------------10--11-11-10-------10-
2|-----11--------------------------11-11--13---------------13----
3|---------------------------------------------------------------
4|---------------------------------------------------------------
5|---------------------------------------------------------------
6|---------------------------------------------------------------

1|--10-------13-13---11-10-11--13---------------10------
2|-------11---------------------------11-11--13---------
3|------------------------------------------------------
4|------------------------------------------------------
5|------------------------------------------------------
6|------------------------------------------------------


1|------------------17-18---------
2|----------15-16-----------------
3|--15--17------------------------
4|--------------------------------
5|--------------------------------
6|--------------------------------
y la otra esto:

A# Dm G D# x2

Riff 1
1|-----------------------------------
2|-----------------------------------
3|-----------------------------------
4|-888888888----55-5---5---888888----
5|-------------------8---------------
6|-----------------------------------

1|--------------------
2|--------------------
3|--10-10--8------8-7-
4|------------12------
5|--------------------
6|--------------------

Riff 2
1|-------------
2|-------------
3|---10--12----
4|-------------
5|-------------
6|-------------

Riff 3
1|--10---------
2|-----11------
3|-------------
4|-------------
5|-------------
6|-------------


[la segunda guitarra toca el riff  1 en casi todos  los versos]
A#                 Dm
Cuando tu padre cientifico afamado
       G                        D#
descubrio que el robot que habia inventado
A#                 Dm
se portaba tan sumiso y tierno
       G                        D#
no dudo en convertirlo en su futuro yerno

A#                                     Dm
Asi que en dos semanas me mandaste al cuerno
      G                        D#
alegando que el robot besaba mejor

A#                     Dm
y no supe que hacer ni que decir <-- cambia a un ritmo mas fuerte
       G                               D#
porque contra una osterizer no se puede competir


Puente: A# Dm Gm D# x2 D# Dm A# Dm <--- escuchen el tiempo de cada
acorde.

Despues se repiten el intro.
1|--10-----13-13---11-10-11--13------------10--11-11-10-------10-
2|-----11--------------------------11-11--13---------------13----
3|---------------------------------------------------------------
4|---------------------------------------------------------------
5|---------------------------------------------------------------
6|---------------------------------------------------------------

1|--10-------13-13---11-10-11--13---------------10------
2|-------11---------------------------11-11--13---------
3|------------------------------------------------------
4|------------------------------------------------------
5|------------------------------------------------------
6|------------------------------------------------------


1|------------------17-18---------
2|----------15-16-----------------
3|--15--17------------------------
4|--------------------------------
5|--------------------------------
6|--------------------------------
y la otra guitarra toca esto:

A# Dm G D# x2

empieza el verso: [riff 1 tmb]

A#                 Dm
Y para que ni siquiera se te ocurra
G                        D#
pensar en mi o tener alguna duda
A#                 Dm
tu padre le puso a tu robot esposo
G                        D#
la cara de un actor muy guapo y muy famoso


A#                       Dm        <-- ritmo mas lento
Y yo creo que a ti te gusto la idea
        G                      D#
de que todo el mundo se entere y te vea
A#                       Dm
caminando por las calles orgullosa
  G                       F
tomada del brazo de esa cosa

coro(ritmo mas fuerte)

D#              A#          D#
Y cada vez que paso por tu casa
         A#           D#
y el te besa en la terraza
       A#
quisiera gritarte

G         F Riff 2
No no no no
D#           A#
no me hagas esto
G          F Riff 3
que no no no
D#        A#
me lo merezco
G         F  Riff 2
No no no no
D#          A#
no me hagas esto
G          F Riff 3
que no no no
D#        A#
me lo merezco


A#                      Dm
Y a todos lados donde voy te veo
G                                   D#
besandote con tu electrodoméstico romeo
A#                      Dm
dejando que te ponga sus manotas de goma
G                                        D#
en lugares en que a mi no me dejabas ni de broma mmm

A#                      Dm
Y yo no pierdo la esperanza de que un dia
G                                 D#
a tu amante se le acabe la maldita bateria
A#                       Dm
y vengas corriendo a pedirme perdon
G                                       F
convencida de que hay cosas que un humano hace mejor


D#          A#          D#
Pero cuando paso por tu casa
         A#           D#
y el te besa en la terraza
         A#
quisiera gritarte

G         F Riff 2
No no no no
D#           A#
no me hagas esto
G          F Riff 3
que no no no
D#        A#
me lo merezco
G         F  Riff 2
No no no no
D#          A#
no me hagas esto
G          F Riff 3
que no no no
D#        A#
me lo merezco


Fin

acordes usados:

     A#  Dm    G    D#   F
1|---6----5----3----6----1------------
2|---6----6----3----8----1------------
3|---7----7----4----8----2------------
4|---8----7----5----8----3------------
5|---8----5----5----6----3------------
6|---6----x----3----x----1------------
Suggest correction
Give kudos to tab author, rate the tab!
1 2 3 4 5
comments
print report bad tab
guest
Wanna post a correction for this tab? Suggest correction