Oops, an error
Loading. Please wait.

Supermercado Bass Tab

version 1
version 1

Whole song

128 views 1 this week
no commentswrite comment
1 2 3 4 5
3 more votes to show rating
add to favorites
launch autoscroll
font size
0
reset
guitar tuner
Autoscroll
slow
fast
+/-
esc
set tempo
stop
Help us to improve Ultimate-Guitar.com Take our survey!
×
* Primero empieza la guitarra con la voz:


Llevo varios días sin probar bocado,
y lo peor de todo es que no tengo ni un centavo
ni ningún amigo ni ningún pariente
que me invite a su casa a comer algo decente.


* Aquí entra el bajo. Esta es la figura principal de la rola.

Fig. 1

1*-------------------7-7-7-5-----------------------------
2*---5--7-8-8-7-5-4----------8----7-8-8-7-7----7-7-7-8-7-
3*-----------------------------6-------------------------
4*------------------------------------------6------------

1*-------------------7-7-7-5-----------------------------
2*---5--7-8-8-7-5-4----------8----7-8-8-7-7----7-7-7-----
3*-----------------------------6----------------------5-5
4*------------------------------------------6------------

         ...Esta figura se repite hasta llegar al:

Pre-CORO:

1*---------------------------------------------------
2*---------------------------------------------------
3*-----6-6--------5-5-----------6-6------------------
4*-----------6-6---------3-3-3--------6-6---1-1-1-1-1


CORO:

No tengo, ni un varo,
todo lo robo del supermercado.
1*----------------------------------------
2*----------------------------------------       [x2]
3*--6--6-6-6------------------------------
4*-----------6--6-6-6--1--1-1-1--3--3-3-3-


Básicamente esa es toda la rola, son todos los tonos.


======================================================================

   *DESPUÉS DE CASI 10 AÑOS, REGRESO CON GUSTO A ESTE SITIO A SEGUIR
 COLABORANDO CON NUEVAS TABLATURAS Y AHORA INVITANDO A LA GENTE A
 ESCUCHAR LAS CANCIONES DE MI PRIMER DISCO!!

             Gracias A Todos Los Que Hicieron Posible Esto.

                          Disco Completo En:

                      

======================================================================
Suggest correction
Give kudos to tab author, rate the tab!
1 2 3 4 5
comments
print report bad tab
guest
You may want to rate the tab now too:
select rating
Wanna post a correction for this tab? Suggest correction