Oops, an error
Loading. Please wait.

Supermercado Bass Tab

version 2
version 2

Whole song

42 views 1 this week
no commentswrite comment
1 2 3 4 5
3 more votes to show rating
add to favorites
launch autoscroll
font size
0
reset
guitar tuner
Autoscroll
slow
fast
+/-
esc
set tempo
stop
Help us to improve Ultimate-Guitar.com Take our survey!
×
Bueno, este es un tab mejorado de los que ya estaban, tiene algunos
pequeños errores, pero pues suena chido y practicamente esta todo
bien, ahi chequenlo a ver que tal :P


Intro

1*--0--2-3-2-0----7-7-7-5-3----2-3-2-0-3--2-2-2-3-2-0--------
2*-------------4------------1--------------------------------
3*-----------------------------------------------------------
4*-----------------------------------------------------------

1*--0--2-3-2-0----7-7-7-5-3----2-3-2-0-3--0-3-0-3-0----------
2*-------------4------------1-----------------------0-0------
3*-----------------------------------------------------------
4*-----------------------------------------------------------


Verso

1*--0--2-3-2-0----7-7-7-5-3----2-3-2-0-3--2-2-2-3-2-0--------
2*-------------4------------1--------------------------------
3*-----------------------------------------------------------
4*-----------------------------------------------------------

1*--0--2-3-2-0----7-7-7-5-3----2-3-2-0---------2h3-----------
2*-------------4------------1----------3-3-3h5---------------
3*-----------------------------------------------------------
4*-----------------------------------------------------------


Precoro 1

1*-----------------------------------------------------------
2*-----------------------------------------------------------
3*-----6-6--------5-5------------6-6-6--------8-8-8-8-8------
4*-----------6-6--------3-3-3-3---------6-6------------------


Coro 1

1*-----------------------------------------------------------
2*-5---------8-8-8---------------------8-7-5-5---------------
3*---6-6-6-6-------8-8---------8-8-8-8---------8-8-5-5-------
4*---------------------10-10-6-------------------------6-----

1*-----------------------------------------------------------
2*-5---------8-8-8-----------------7-7-8-8-7-7-5-5-----5-5---
3*---6-6-6-6-------8-8---------8-8-----------------8-8-------
4*---------------------10-10-6-----------------------------6-

1*-----------------------------------------------------------
2*-5---------8-8-8-------------------------------------------
3*---6-6-6-6-------8-8---------8-8-8-8-8-8-------------------
4*---------------------10-10-6-------------------------------


Post coro 1

1*--0--2-3-2-0----7-7-7-5-3----2-3-2-0-3--2-2-2-3-2-0--------
2*-------------4------------1--------------------------------
3*-----------------------------------------------------------
4*-----------------------------------------------------------

1*--0--2-3-2-0----7-7-7-5-3----2-3-2-0-3--0-3-0-3-0----------
2*-------------4------------1-----------------------0-0------
3*-----------------------------------------------------------
4*-----------------------------------------------------------


Verso 2

1*--0--2-3-2-0----7-7-7-5-3----2-3-2-0-3--2-2-2-3-2-0--------
2*-------------4------------1--------------------------------
3*-----------------------------------------------------------
4*-----------------------------------------------------------

1*--0--2-3-2-0----7-7-7-5-3---2-3-2-3---2-2-3-2--
2*-------------4------------1--------------------
3*-----------------------------------------------
4*-----------------------------------------------


1*--0-0-0-0--------------------3-3-3-3--
2*-----------4-4-4-4--1-1-1-1-----------
3*--------------------------------------
4*--------------------------------------


Verso 3

1*--0--2-3-2-0----7-7-7-5-3----2-3-2-0-3--2-2-2-3-2-0--------
2*-------------4------------1--------------------------------
3*-----------------------------------------------------------
4*-----------------------------------------------------------

1*--0--2-3-2-0----7-7-7-5-3----2-3-2-0---------2h3-----------
2*-------------4------------1----------3-3-3h5---------------
3*-----------------------------------------------------------
4*-----------------------------------------------------------


Precoro 2

1*-----------------------------------------------------------
2*-----------------------------------------------------------
3*-----6-6--------5-5------------6-6-6--------8-8-8-8-8------
4*-----------6-6--------3-3-3-3---------6-6------------------


Coro

1*-----------------------------------------------------------
2*-5---------8-8-8---------------------8-7-5-5---------------
3*---6-6-6-6-------8-8---------8-8-8-8---------8-8-5-5-------
4*---------------------10-10-6-------------------------6-----

1*-----------------------------------------------------------
2*-5---------8-8-8-----------------7-7-8-8-7-7-5-5-----5-5---
3*---6-6-6-6-------8-8---------8-8-----------------8-8-------
4*---------------------10-10-6-----------------------------6-


1*-----------------------------------------------------------
2*-5---------8-8-8-------------------------------------------
3*---6-6-6-6-------8-8---------8-8-8-8-8-8-------------------
4*---------------------10-10-6-------------------------------


Post coro 2

1*--0~~~~~~~--------------------3-2-1-0~~~~~~~~--------------------7-5-3-2
2*-----------4~~~~~~~-1~~~~~~~~-----------------4~~~~~~~-1~~~~~~~~--------
3*------------------------------------------------------------------------
4*------------------------------------------------------------------------


1*--0--2-3-2-0----7-7-7-5-3----2-3-2-0-3--2-2-2-3-2-0--------
2*-------------4------------1--------------------------------
3*-----------------------------------------------------------
4*-----------------------------------------------------------

1*--0--2-3-2-0----7-7-7-5-3----2-3-2-0-3--0-3-0-3-0----------
2*-------------4------------1-----------------------0-0------
3*-----------------------------------------------------------
4*-----------------------------------------------------------

Verso 4

1*--0--2-3-2-0----7-7-7-5-3----2-3-2-0-3--2-2-2-3-2-0--------
2*-------------4------------1--------------------------------
3*-----------------------------------------------------------
4*-----------------------------------------------------------

1*--0--2-3-2-0----7-7-7-5-3----2-3-2-0---------2h3-----------
2*-------------4------------1----------3-3-3h5---------------
3*-----------------------------------------------------------
4*-----------------------------------------------------------

Precoro 1

1*-----------------------------------------------------------
2*-----------------------------------------------------------
3*-----6-6-----------------------6-6-6--------8-8-8-8-8------
4*----------------------3-3-3-3------------------------------


Coro

1*-----------------------------------------------------------
2*-5---------8-8-8---------------------8-7-5-5---------------
3*---6-6-6-6-------8-8---------8-8-8-8---------8-8-5-5-------
4*---------------------10-10-6-------------------------6-----
                                                                    (x4)
1*-----------------------------------------------------------
2*-5---------8-8-8-----------------7-7-8-8-7-7-5-5-----5-5---
3*---6-6-6-6-------8-8---------8-8-----------------8-8-------
4*---------------------10-10-6-----------------------------6-


1*-----------------------------------------------------------
2*-5---------8-8-8-------------------------------------------
3*---6-6-6-6-------8-8---------8-8-8-8-8-8-------------------
4*---------------------10-10-6-------------------------------


Bueno, pues eso es todo, cualquier duda o aclaracion, ahi esta mi correo,
y pues un saludo a blacksoul, y un saludo especial a Martha, que es mi inspiracion
en todo :P, muchas gracias por estar a mi lado. :D
Suggest correction
Give kudos to tab author, rate the tab!
1 2 3 4 5
comments
print report bad tab
guest
You may want to rate the tab now too:
select rating
Wanna post a correction for this tab? Suggest correction