Oops, an error
Loading. Please wait.

All In Good Time Tab

167 views 1 this week
no commentswrite comment
1 2 3 4 5
please rate
add to favorites
launch autoscroll
font size
0
reset
how to read this tab
guitar tuner
Tab Pro tools
  • play this tab
  • loop segment
  • change instrument
  • show fretboard
  • metronome
Autoscroll
slow
fast
+/-
esc
set tempo
stop
Tuning
D A D G B E
Song  : All In Good Time
Artist: Mami Kawada
Album : Linkage
Year  : 2010


Guitar Tuning: Drop D


Fig. 0

e|-------------|
B|-------------|
G|-------------|
D|---x-x-x-x---|
A|---x-x-x-x---|
D|---x-x-x-x---|


Fig. 1

e|-------------------------------------------------------------------------------|
B|-------------------------------------------------------------------------------|
G|-------------------------------------------------------------------------------|
D|---4---4-------4---4--------4--4----------5---5-------5---5--------5--5--------|
A|---4---4-------4---4--------4--4----------5---5-------5---5--------5--5--------|
D|---4---4--4-4--4---4--4-4---4--4---4-4----5---5--5-5--5---5--5-5---5--5--5-5---| 2x
            . .         . .          . .           . .         . .         . .


Fig. 2

e|-------------------------------------------------------------------------------|
B|-------------------------------------------------------------------------------|
G|---6---6-------6---6--------6--6----------7---7-------7---7--------7--7--------|
D|---x---x-------x---x--------x--x----------x---x-------x---x--------x--x--------|
A|---4---4-------4---4--------4--4----------5---5-------5---5--------5--5--------|
D|----------4-4---------4-4----------4-4-----------5-5---------5-5---------5-5---|
            . .         . .          . .           . .         . .         . .

e|-----------------------------------------------------------------------------|
B|-----------------------------------------------------------------------------|
G|---6---6-------6---6--------6--6----------7---7-------9---9--------9----9/---|
D|---x---x-------x---x--------x--x----------x---x-------x---x--------x----x/---|
A|---4---4-------4---4--------4--4----------5---5-------7---7--------7----7/---|
D|----------4-4---------4-4----------4-4-----------5-5---------7-7-------------|
            . .         . .          . .           . .         . .


Fig. 3

e|-------------------------------------------------------------------------------|
B|-------------------------------------------------------------------------------|
G|-------------------------------------------------------------------------------|
D|---0---0-------0---0--------0--0----------4---4-------4---4--------4--4--------|
A|---0---0-------0---0--------0--0----------4---4-------4---4--------4--4--------|
D|---0---0--0-0--0---0--0-0---0--0---0-0----4---4--4-4--4---4--4-4---4--4--4-4---|
            . .         . .          . .           . .         . .         . .


e|-----------------------------------------------------------------------------|
B|-----------------------------------------------------------------------------|
G|-----------------------------------------------------------------------------|
D|---5---5-------5---5--------5--5----------7---7-------7---7--------7----7/---|
A|---5---5-------5---5--------5--5----------7---7-------7---7--------7----7/---|
D|---5---5--5-5--5---5--5-5---5--5---5-5----7---7--7-7--7---7--7-7---7----7/---| 2x
            . .         . .          . .           . .         . .


Fig. 4

e|--------------------------------------------------------------------------------|
B|--------------------------------------------------------------------------------|
G|--------------------------------------------------------------------------------|
D|--------------------------------------------------------------------------------|
A|---5--0---0-------5--0---0-------3h5--0---5--0---0-------5--0---0---------------|
D|------0---0--0-0-----0---0--0-0-------0------0---0--0-0-----0---0--3p0-3p0--3---| 2x
               . .            . .                     . .                     *


Fig. 0

e|-------------|
B|-------------|
G|-------------|
D|---x-x-x-x---|
A|---x-x-x-x---|
D|---x-x-x-x---|


Fig. 1

e|-------------------------------------------------------------------------------|
B|-------------------------------------------------------------------------------|
G|-------------------------------------------------------------------------------|
D|---4---4-------4---4--------4--4----------5---5-------5---5--------5--5--------|
A|---4---4-------4---4--------4--4----------5---5-------5---5--------5--5--------|
D|---4---4--4-4--4---4--4-4---4--4---4-4----5---5--5-5--5---5--5-5---5--5--5-5---| 2x
            . .         . .          . .           . .         . .         . .


Fig. 2


e|-------------------------------------------------------------------------------|
B|-------------------------------------------------------------------------------|
G|---6---6-------6---6--------6--6----------7---7-------7---7--------7--7--------|
D|---x---x-------x---x--------x--x----------x---x-------x---x--------x--x--------|
A|---4---4-------4---4--------4--4----------5---5-------5---5--------5--5--------|
D|----------4-4---------4-4----------4-4-----------5-5---------5-5---------5-5---|
            . .         . .          . .           . .         . .         . .

e|-----------------------------------------------------------------------------|
B|-----------------------------------------------------------------------------|
G|---6---6-------6---6--------6--6----------7---7-------9---9--------9----9/---|
D|---x---x-------x---x--------x--x----------x---x-------x---x--------x----x/---|
A|---4---4-------4---4--------4--4----------5---5-------7---7--------7----7/---|
D|----------4-4---------4-4----------4-4-----------5-5---------7-7-------------|
            . .         . .          . .           . .         . .


Fig. 3

e|-------------------------------------------------------------------------------|
B|-------------------------------------------------------------------------------|
G|-------------------------------------------------------------------------------|
D|---0---0-------0---0--------0--0----------4---4-------4---4--------4--4--------|
A|---0---0-------0---0--------0--0----------4---4-------4---4--------4--4--------|
D|---0---0--0-0--0---0--0-0---0--0---0-0----4---4--4-4--4---4--4-4---4--4--4-4---|
            . .         . .          . .           . .         . .         . .


e|-----------------------------------------------------------------------------|
B|-----------------------------------------------------------------------------|
G|-----------------------------------------------------------------------------|
D|---5---5-------5---5--------5--5----------7---7-------7---7--------7----7/---|
A|---5---5-------5---5--------5--5----------7---7-------7---7--------7----7/---|
D|---5---5--5-5--5---5--5-5---5--5---5-5----7---7--7-7--7---7--7-7---7----7/---| 2x
            . .         . .          . .           . .         . .

Solo 1

e|-----------------------------------------------------|
B|-----------------------------------------------------|
G|--------7--7h9--7------/11h12--11--9---7--7h9p7--6---|
D|---/9--------------9/--------------------------------|
A|-----------------------------------------------------|
D|-----------------------------------------------------|


e|------------------------10h12--12--10--10---9--10h12--10---|
B|-----------------------------------------------------------|
G|---6--7--7/9--7--------------------------------------------|
D|------------------9/---------------------------------------|
A|-----------------------------------------------------------|
D|-----------------------------------------------------------|

* cant figure out solo 2, there's just too much going on in the song... sorry!*


Fig.5 (backing for solo 2, not sure about this one)

e|-------------------------------------------------------------------------------|
B|-------------------------------------------------------------------------------|
G|-------------------------------------------------------------------------------|
D|---5---5--x-x--5---5--x-x---5--5---x-x----9---9--x-x--9---9--x-x---9--9--x-x---|
A|---5---5--x-x--5---5--x-x---5--5---x-x----9---9--x-x--9---9--x-x---9--9--x-x---|
D|---5---5--x-x--5---5--x-x---5--5---x-x----9---9--x-x--9---9--x-x---9--9--x-x---| 3x

e|-----------------------------------------------------------------|
B|-----------------------------------------------------------------|
G|---7---7--x-x--7---7--x-x---7-7-7-7--(x)-------------------------|
D|---7---7--x-x--7---7--x-x---5-5-5-5--(x)---7--7--7--7--7--7--7---|
A|---5---5--x-x--5---5--x-x---5-5-5-5--(x)---7--7--7--7--7--7--7---|
D|-------------------------------------------7--7--7--7--7--7--7---|


Fill

e|--------------|
B|--------------|
G|--------------|
D|---5~----7~---|
A|---5~----7~---|
D|---5~----7~---|


Fig. 3

e|-------------------------------------------------------------------------------|
B|-------------------------------------------------------------------------------|
G|-------------------------------------------------------------------------------|
D|---0---0-------0---0--------0--0----------4---4-------4---4--------4--4--------|
A|---0---0-------0---0--------0--0----------4---4-------4---4--------4--4--------|
D|---0---0--0-0--0---0--0-0---0--0---0-0----4---4--4-4--4---4--4-4---4--4--4-4---|
            . .         . .          . .           . .         . .         . .


e|-----------------------------------------------------------------------------|
B|-----------------------------------------------------------------------------|
G|-----------------------------------------------------------------------------|
D|---5---5-------5---5--------5--5----------7---7-------7---7--------7----7/---|
A|---5---5-------5---5--------5--5----------7---7-------7---7--------7----7/---|
D|---5---5--5-5--5---5--5-5---5--5---5-5----7---7--7-7--7---7--7-7---7----7/---| 4x
            . .         . .          . .           . .         . .

Fig. 4

e|--------------------------------------------------------------------------------|
B|--------------------------------------------------------------------------------|
G|--------------------------------------------------------------------------------|
D|--------------------------------------------------------------------------------|
A|---5--0---0-------5--0---0-------3h5--0---5--0---0-------5--0---0---------------|
D|------0---0--0-0-----0---0--0-0-------0------0---0--0-0-----0---0--3p0-3p0--3---| 2x
               . .            . .                     . .                     *


End

e|--------|
B|--------|
G|--------|
D|--------|
A|---0~---|
D|---0~---|



Notes:

- I do not own the rights for the song. Copyrights belong to Geneon Universal 
Entertainment and Mami Kawada
- This is just for fun and sharing purposes only
- This is 100% tabbed by ear
- Corrections are most welcome especially for solo 2. Just go ahead and copy this tab 
and edit away!
- HAVE FUN!!!

~ = ring
. = palm mute
/ = slide
* = pinched harmonic

--- watch me play it here if you don't mind ---

http://www.youtube.com/watch?v=obS90Y6QJyI

-----------------------------------------------

JCarlo_TC@yahoo.com
comments
We did not receive enough feedback on this tab! Please rate:
print report bad tab
1 2 3 4 5
I want to post or [tab]
guest
You may want to rate the tab now too:
select rating
Please do not post tabs as comments. Select "correction" instead!