Oops, an error
Loading. Please wait.

Joint bass

version 2
version 2

Whole song

Interactive

70 views 1 this week
no commentswrite comment
1 2 3 4 5
3 more votes to show rating
add to favorites
×
Save as Personal and add changes to this tab that will be seen only by you. Learn more ›
×
You can save this tab as Personal to edit and correct it or add notes. All changes will be seen only by you. Learn more »
launch autoscroll
font size
0
reset
guitar tuner
edit
Autoscroll
slow
fast
+/-
esc
set tempo
stop

Intro
G|-----------------------------------------------------------------|
D|-----------------------------------------------------------------|
A|-----------------------------------------------------------------|
D|---------------------------------2-------------------------------|
   1 + 2 + 3 + 4 + 1 + 2 + 3 + 4 + 1 + 2 + 3 + 4 + 1 + 2 + 3 + 4 +

G|-----------------------------------------------------------------|
D|-----------------------------------------------------------------|
A|-----------------------------------------------------------------|
D|-2-2-2---------------------------------------------------2-r-0---|
   1 + 2 + 3 + 4 + 1 + 2 + 3 + 4 + 1 + 2 + 3 + 4 + 1 + 2 + 3 + 4 +

0:10
G|------------------------------------------------------------------|
D|o-----------------------------------------------------------------|
A|o---------------5-5-5-5-5-0-0-0-0---------------3-3-3-3-3-5-3-5-5-|
D|--2-2-2-2-5-5-5-------------------2-2-2-2-5-5-5-------------------|
    1 + 2 + 3 + 4 + 1 + 2 + 3 + 4 + 1 + 2 + 3 + 4 + 1 + 2 + 3 + 4 +

G|------------------------------------------------------------------|
D|--------------------------------(2)------------------------------o| (2) play second time 
A|---------------5-5-5-5-5-0-0-0-0---------------3-3-3-3-3-5-5-5-5-o|
D|-2-2-2-2-5-5-5-------------------2-2-2-2-5-5-5--------------------|
   1 + 2 + 3 + 4 + 1 + 2 + 3 + 4 + 1 + 2 + 3 + 4 + 1 + 2 + 3 + 4 +

Verse 0:31
G|-----------------------------------------------------------------|
D|-----------------------------------------------------------------|
A|---------------------------------------------------------------3-|
D|-2-2-2-2-2-2-2-2-2-2-2-2-2-2-4-5---5-5---5-5-5-4-5-5-5-5-5-4-5---|
   1 + 2 + 3 + 4 + 1 + 2 + 3 + 4 + 1 + 2 + 3 + 4 + 1 + 2 + 3 + 4 +

G|-----------------------------------------------------------------|
D|-----------------------------------------------------------------|
A|---3-3-3-3-3-3-2-3-3-3-3-3-3-3-----------------------------------|
D|-------------------------------0-0-0-0-0-0-0-0-0-0-0-0-0-0-0-0-0-|
   1 + 2 + 3 + 4 + 1 + 2 + 3 + 4 + 1 + 2 + 3 + 4 + 1 + 2 + 3 + 4 +

G|-----------------------------------------------------------------|
D|-----------------------------------------------------------------|
A|---------------------------------------------------------------3-|
D|-2-2-2-2-2-2-2-2-2-2-2-2-2-2-4-5---5-5-5-5-5-5-5-5-5-5-5-5-5-5---|
   1 + 2 + 3 + 4 + 1 + 2 + 3 + 4 + 1 + 2 + 3 + 4 + 1 + 2 + 3 + 4 +

G|-----------------------------------------------------------------|
D|-----------------------------------------------------------------|
A|---3-3-3-3-3-3-3-3-3-3-3-3-3-3-3---------------------------------|
D|---------------------------------0-0-0---0-0-0---0-0---0---0-0-0-|
   1 + 2 + 3 + 4 + 1 + 2 + 3 + 4 + 1 + 2 + 3 + 4 + 1 + 2 + 3 + 4 +

Pre Chorus 0:53
G|-----------------------------------------------------------------|
D|-----------------------------------------------------------------|
A|-----------------------------------------------------------------|
D|-2-r-2-/-8-8-8-7-----5-----0-0---2-r-2-/-8-8-8-7-----5-----------|
   1 + 2 + 3 + 4 + 1 + 2 + 3 + 4 + 1 + 2 + 3 + 4 + 1 + 2 + 3 + 4 +

G|-----------------------------------------------------------------|
D|-----------------------------------------------------------------|
A|---------------------------------3-3-3-3-3-3-3-5---5-5-5-5-5-5-5-|
D|-2-r-2-/-8-8-8-7-----5-----0-0-0---------------------------------|
   1 + 2 + 3 + 4 + 1 + 2 + 3 + 4 + 1 + 2 + 3 + 4 + 1 + 2 + 3 + 4 +

G|---------------------------------|
D|---------------------------------|
A|---------------------------------|
D|-9-9-7-9-\-----9-\-r---------0-2-|
   1 + 2 + 3 + 4 + 1 + 2 + 3 + 4 + 

Chorus 1:06
G|-----------------------------------------------------------------|
D|-----------------------------------------------------------------|
A|---------------3---3-3-3-3-3-3-----------------------------------|
D|---2-2-2-2-2-2-----------------5---5-5-5-5-5-5-0---0-5-0-4-5-0-2-|
   1 + 2 + 3 + 4 + 1 + 2 + 3 + 4 + 1 + 2 + 3 + 4 + 1 + 2 + 3 + 4 +

G|-----------------------------------------------------------------|
D|-----------------------------------------------------------------|
A|---------------3---3-5-3-2-3-2-0---0-0-0-----0-2---2-2-6-6-6-6---|
D|---2-2-2-2-2-2---------------------------4-5-------------------2-|
   1 + 2 + 3 + 4 + 1 + 2 + 3 + 4 + 1 + 2 + 3 + 4 + 1 + 2 + 3 + 4 +

G|-----------------------------------------------------------------|
D|-----------------------------------------------------------------|
A|---------------3---3-3-3-3-3-3-----------------5---5-3-5-3-5-6-7-|
D|-2-2-2-2-2-2-2-----------------5---5-5-5-5-5-5-------------------|
   1 + 2 + 3 + 4 + 1 + 2 + 3 + 4 + 1 + 2 + 3 + 4 + 1 + 2 + 3 + 4 +

G|-----------------------------------------------------------------|
D|-----------------------------------------------------------------|
A|---------------3---2-5-3-5-3-2-0-----0-------0-2---2-2-2-6-6-6-6-|
D|---2-2-2-2-2-2---------------------5---5-4-5---------------------|
   1 + 2 + 3 + 4 + 1 + 2 + 3 + 4 + 1 + 2 + 3 + 4 + 1 + 2 + 3 + 4 +

Interlude 1:27
G|-----------------------------------------------------------------|
D|-----------------------------------------------------------------|
A|-----------------------------------------------------------------|
D|-----------------------------12\-2-r-2---5-2-5-5---7---7-8-7-5-7-|
   1 + 2 + 3 + 4 + 1 + 2 + 3 + 4 + 1 + 2 + 3 + 4 + 1 + 2 + 3 + 4 +

G|---------------------------------|
D|---------------------------------|
A|---------------------------------|
D|-2-r-2---5-2-5-0-----0-0-0-0-0-0-|
   1 + 2 + 3 + 4 + 1 + 2 + 3 + 4 + 


Verse 1:35
G|-----------------------------------------------------------------|
D|-----------------------------------------------------------------|
A|---------------------------------------------------------------3-|
D|-2-2-2-2-2-2-2-2-2-2-2-2-2-2-4-5---5-5-5-5-5-5-5-5-5-5-5-5-5-5---|
   1 + 2 + 3 + 4 + 1 + 2 + 3 + 4 + 1 + 2 + 3 + 4 + 1 + 2 + 3 + 4 +

G|-----------------------------------------------------------------|
D|-----------------------------------------------------------------|
A|---3-3-3-3-3-3-3-3-3-3-3-3-3-3-----------------------------------|
D|-------------------------------0-0-0-0-0-0-0-0-0-0-0-0-0-0-0-0-0-|
   1 + 2 + 3 + 4 + 1 + 2 + 3 + 4 + 1 + 2 + 3 + 4 + 1 + 2 + 3 + 4 +

1:46
G|-----------------------------------------------------------------|
D|-----------------------------------------------------------------|
A|-----------------------------------------------------------------|
D|-2-2-2---2-2-2---2-2-2---2-2-2---5-5-5---5-5-5---5-5-5---5-5-5---|
   1 + 2 + 3 + 4 + 1 + 2 + 3 + 4 + 1 + 2 + 3 + 4 + 1 + 2 + 3 + 4 +

G|-----------------------------------------------------------------|
D|-----------------------------------------------------------------|
A|-3-3-3---3-3-3---3-3-3---3-3-3-----------------------------------|
D|---------------------------------0-0-0---0-0-0---0-0-0---0-0-0-0-|
   1 + 2 + 3 + 4 + 1 + 2 + 3 + 4 + 1 + 2 + 3 + 4 + 1 + 2 + 3 + 4 +

Pre Chorus 1:57
G|-----------------------------------------------------------------|
D|-----------------------------------------------------------------|
A|-----------------------------------------------------------------|
D|-2-r-2-/-8-8-8-7-----5-----5-0---2-r-2-/-8-8-8-7-----5-----------|
   1 + 2 + 3 + 4 + 1 + 2 + 3 + 4 + 1 + 2 + 3 + 4 + 1 + 2 + 3 + 4 +

G|-----------------------------------------------------------------|
D|-----------------------------------------------------------------|
A|---------------------------------3-3-3-3-3-3-3-5---5-5-5-5-5-5-5-|
D|-2-r-2-/-8-8-8-7-----5-----0-0-0---------------------------------|
   1 + 2 + 3 + 4 + 1 + 2 + 3 + 4 + 1 + 2 + 3 + 4 + 1 + 2 + 3 + 4 +

G|---------------------------------|
D|---------------------------------|
A|---------------------------------|
D|-9-9-7-9-\-----9-\-r---------0-2-|
   1 + 2 + 3 + 4 + 1 + 2 + 3 + 4 + 

Chorus 2:11
G|-----------------------------------------------------------------|
D|-----------------------------------------------------------------|
A|---------------3---3-3-3-3-3-3-----------------------------------|
D|---2-2-2-2-2-2-----------------5---5-5-5-5-5-5-0---0-5-0-4-5-0-2-|
   1 + 2 + 3 + 4 + 1 + 2 + 3 + 4 + 1 + 2 + 3 + 4 + 1 + 2 + 3 + 4 +

G|-----------------------------------------------------------------|
D|-----------------------------------------------------------------|
A|---------------3---3-5-3-2-3-2-0---0-0-0-----0-2---2-2-6-6-6-6---|
D|---2-2-2-2-2-2---------------------------4-5-------------------2-|
   1 + 2 + 3 + 4 + 1 + 2 + 3 + 4 + 1 + 2 + 3 + 4 + 1 + 2 + 3 + 4 +

G|-----------------------------------------------------------------|
D|-----------------------------------------------------------------|
A|---------------3---3-3-3-3-3-3-----------------5---5-3-5-3-5-6-7-|
D|-2-2-2-2-2-2-2-----------------5---5-5-5-5-5-5-------------------|
   1 + 2 + 3 + 4 + 1 + 2 + 3 + 4 + 1 + 2 + 3 + 4 + 1 + 2 + 3 + 4 +

G|-----------------------------------------------------------------|
D|-----------------------------------------------------------------|
A|---------------3---2-5-3-5-3-2-0-----0-------0-2---2-2-2-6-6-6-6-|
D|---2-2-2-2-2-2---------------------5---5-4-5---------------------|
   1 + 2 + 3 + 4 + 1 + 2 + 3 + 4 + 1 + 2 + 3 + 4 + 1 + 2 + 3 + 4 +

G|---------------------------------|
D|---------------------------------|
A|---------------------------------|
D|-3-------------------------------|
   1 + 2 + 3 + 4 + 1 + 2 + 3 + 4 + 

BreakDown 2:35
G|-----------------------------------------------------------------|
D|-----------------------------------------------------------------|
A|-----------------------------------------------------------------|
D|-2-2---2-2---2-2---2-2---5h7-8---2-2---2-2---2-2---2-2---0---0---|
   1 + 2 + 3 + 4 + 1 + 2 + 3 + 4 + 1 + 2 + 3 + 4 + 1 + 2 + 3 + 4 +

G|-----------------------------------------------------------------|
D|-----------------------------------------------------------------|
A|-----------------------------------------------------------------|
D|-2-2---2-2---2-2---2-2---5h7-8---2-2---2-2---2-2---2-2---0-0-0-0-|
   1 + 2 + 3 + 4 + 1 + 2 + 3 + 4 + 1 + 2 + 3 + 4 + 1 + 2 + 3 + 4 +

G|-----------------------------------------------------------------|
D|-----------------------------------------------------------------|
A|-----------------------------------------------------------------|
D|-------2-2---2-2---2-2---5---8---2-2---2-2---2-2---2-2-----------|
   1 + 2 + 3 + 4 + 1 + 2 + 3 + 4 + 1 + 2 + 3 + 4 + 1 + 2 + 3 + 4 +

G|-----------------------------------------------------------------|
D|-----------------------------------------------------------------|
A|-----------------------------------------------------------------|
D|-------------------------5---8---2-2---2-2---2-2---2-2---0-0-0-0-|
   1 + 2 + 3 + 4 + 1 + 2 + 3 + 4 + 1 + 2 + 3 + 4 + 1 + 2 + 3 + 4 +

Bridge 2:56
G|-----------------------------------------------------------------|
D|-----------------------------------------------------------------|
A|-------------------------------3---3-3-3-3-3-3-3---3-3-3-3-3-3---|
D|-5-5-5-5-5-5-5-5---5-5-5-5-5-5---------------------------------2-|
   1 + 2 + 3 + 4 + 1 + 2 + 3 + 4 + 1 + 2 + 3 + 4 + 1 + 2 + 3 + 4 +

G|-----------------------------------------------------------------|
D|-----------------------------------------------------------------|
A|---------------------------------------------------------5-5-5-5-|
D|---2-2-2-2-2-2-2---2-2-2-2-2-2-0---0-0---0-0-0---0-0-0-0---------|
   1 + 2 + 3 + 4 + 1 + 2 + 3 + 4 + 1 + 2 + 3 + 4 + 1 + 2 + 3 + 4 +

G|-----------------------------------------------------------------|
D|-----------------------------------------------------------------|
A|-------------------------------3---3-3-3-3-3-3-3---3-3-3-3-3-3---|
D|-5-5-5-5-5-5-4-5---5-5-5-5-5-5---------------------------------2-|
   1 + 2 + 3 + 4 + 1 + 2 + 3 + 4 + 1 + 2 + 3 + 4 + 1 + 2 + 3 + 4 +

G|-----------------------------------------------------------------|
D|-----------------------------------------------------------------|
A|-----------------------------------------5-5-5-5-5-3-------------|
D|---2-2-2-2-2-0-2---2-2-2-2-2-2-0---0-0-----------------4-5-4-0-0-|
   1 + 2 + 3 + 4 + 1 + 2 + 3 + 4 + 1 + 2 + 3 + 4 + 1 + 2 + 3 + 4 +

Pre Chorus 3:17
G|-----------------------------------------------------------------|
D|-----------------------------------------------------------------|
A|---------------------------------3-3-3-3-3-3-3-5---5-5-5-5-5-5-5-|
D|-2-r-2-/-8-8-8-7-----5-----0-0-----------------------------------|
   1 + 2 + 3 + 4 + 1 + 2 + 3 + 4 + 1 + 2 + 3 + 4 + 1 + 2 + 3 + 4 +

G|---------------------------------|
D|---------------------------------|
A|---------------------------------|
D|-9-9-7-9-\-7---9-\-r-------------|
   1 + 2 + 3 + 4 + 1 + 2 + 3 + 4 + 

Chorus 3:25
G|-----------------------------------------------------------------|
D|-----------------------------------------------------------------|
A|-----------------------------------------------------------------|
D|-------------------------------5---5-5-5-5-5-5-0---0-5-0-4-5-0-2-|
   1 + 2 + 3 + 4 + 1 + 2 + 3 + 4 + 1 + 2 + 3 + 4 + 1 + 2 + 3 + 4 +

G|-----------------------------------------------------------------|
D|-----------------------------------------------------------------|
A|---------------3---3-5-3-2-3-2-0---0-0-0-----0-2---2-2-6-6-6-6---|
D|---2-2-2-2-2-2---------------------------4-5-------------------2-|
   1 + 2 + 3 + 4 + 1 + 2 + 3 + 4 + 1 + 2 + 3 + 4 + 1 + 2 + 3 + 4 +

G|-----------------------------------------------------------------|
D|-----------------------------------------------------------------|
A|---------------3---3-3-3-3-3-3-----------------5---5-3-5-3-5-6-7-|
D|-2-2-2-2-2-2-2-----------------5---5-5-5-5-5-5-------------------|
   1 + 2 + 3 + 4 + 1 + 2 + 3 + 4 + 1 + 2 + 3 + 4 + 1 + 2 + 3 + 4 +

G|-----------------------------------------------------------------|
D|-----------------------------------------------------------------|
A|---------------3---2-5-3-5-3-2-0-----0-------0-2---2-2-2-6-6-6-6-|
D|---2-2-2-2-2-2---------------------5---5-4-5---------------------|
   1 + 2 + 3 + 4 + 1 + 2 + 3 + 4 + 1 + 2 + 3 + 4 + 1 + 2 + 3 + 4 +

Outro 3:46
G|-----------------------------------------------------------------|
D|-----------------------------------------------------------------|
A|---------------5-5-5-5-5-0-0-0-0---------------3-3-3-3-3-5-3-5-5-|
D|-2-2-2-2-5-5-5-------------------2-2-2-2-5-5-5-------------------|
   1 + 2 + 3 + 4 + 1 + 2 + 3 + 4 + 1 + 2 + 3 + 4 + 1 + 2 + 3 + 4 +

G|---------------------------------------------------------------------|
D|---------------------------------2-----------------------------------|
A|---------------5-5-5-5-5-0-0-0-0---------------3-3-3-3-3-5-5-5-5-5-r-|
D|-2-2-2-2-5-5-5---------------------2-2-2-5-5-5-----------------------|
   1 + 2 + 3 + 4 + 1 + 2 + 3 + 4 + 1 + 2 + 3 + 4 + 1 + 2 + 3 + 4 + 1 +
Tabbed by Dave Vucko

            
            
Suggest correction
Creating personal tab
Creating personal tab
You can edit any tab online and save it as your Personal.

You can edit, replace or remove any tab part or add personal notes – all changes will be seen only by you.

Personal tabs can be accessed anytime from any device, even offline.
Learn more »
Give kudos to tab author, rate the tab!
1 2 3 4 5
comments
print report bad tab
guest
You may want to rate the tab now too:
select rating
Wanna post a correction for this tab? Suggest correction