Oops, an error
Loading. Please wait.

Idiotizado Tab

37 views 1 this week
no commentswrite comment
1 2 3 4 5
3 more votes to show rating
add to favorites
launch autoscroll
font size
0
reset
how to read this tab
guitar tuner
Autoscroll
slow
fast
+/-
esc
set tempo
stop
Help us to improve Ultimate-Guitar.com Take our survey!
×
Esta es la versión en vivo que esta en el CD ?El mundo es un día
gris? y se la toca con solo una guitarra eléctrica pero puse los
acordes en el coro por si acaso. Originalmente solo se toca el riff
en el coro y este es acompañado con batería, bajo y algo de piano.
En muchas partes de la canción se tiene que jugar con los acordes.
Y también se pueden ayudar con el capó en el 1º traste porque todos
los acordes son con puente.

Intro:
G#  D#  (X6)
C# C#m

G#         D#
    Idiotizado
G#                    D#
    me pierdo si encuentro
     C#
tus ojos
   C#m             G#
la calma iehieh me dan
        D#
Hipnotizado
G#                D#             C#
    si dices las cosas que yo siento
    C#m
acá dentro

Coro: Aquí se repite un riff a lo largo del coro

E|------------------------|
B|------8-9-----------8-9-| X2
G|-10-8-----8/0--10-8-----|

   A#m
Ya sé
    D#
que todo ha cambiado
   G#
ya ves
    Cm       C#       A#m
el tiempo no pasa sin ti
    D#
no tengo respuestas
    G#    C# C#m
ya sé, ya sé

G# D#

G#         D#
    Idiotizado
G#                D#         C#
    mis ojos envidian mis manos
        C#m            G#
que te logran iehieh tocar
       D#
Hipnotizado
G#                D#
    si estás a mi lado
     C#     C#m
el cielo me das

Coro: Se utiliza el mismo riff del primer coro

   A#m
Ya sé
    D#
que todo ha cambiado
   G#
ya ves
    Cm       C#       A#m
el tiempo no pasa sin ti
    D#
no tengo respuestas
    G#    C# C#m
ya sé, ya sé

Solo:

E|---------------------------------|
B|-9-9-9-9-9-9-9-9-8-8-8-8-8-8-8-8-|
G|-8-8-8-8-8-8-8-8-8-8-8-8-8-8-8-8-| X2
D|-6-6-6-6-6-6-6-6-6-6-6-6-6-6-6-6-|
A|---------------------------------|
E|---------------------------------|

E|----------------------------------------------4~-|
B|-9-9-9-9-9-9-9-9-----------------------6----5----|
G|-8-8-8-8-8-8-8-8-6-6-6-6-6-6-6-6-----6---6--6----|
D|-6-6-6-6-6-6-6-6-6-6-6-6-6-6-6-6---6--------6----|
A|-----------------4-4-4-4-4-4-4-4-4----------4----|
E|-------------------------------------------------|

Coro: Se utiliza el mismo riff del primer coro

   A#m
Ya sé
    D#
que todo ha cambiado
   G#
ya ves
    Cm       C#       A#m
el tiempo no pasa sin ti
    D#
no tengo respuestas
    G#    C# C#m
ya sé, ya sé

E|---------------------------------|
B|-9-9-9-9-9-9-9-9-8-8-8-8-8-8-8-8-|
G|-8-8-8-8-8-8-8-8-8-8-8-8-8-8-8-8-|
D|-6-6-6-6-6-6-6-6-6-6-6-6-6-6-6-6-|
A|---------------------------------|
E|---------------------------------|

E|---------------------------------|
B|-9-9-9-9-9-9-9-9-8-8-8-8-6-6-6-6-|      ...uuoohh!...
G|-8-8-8-8-8-8-8-8-8-8-8-8-6-6-6-6-| ...El tiempo no pasa...
D|-6-6-6-6-6-6-6-6-6-6-6-6-6-6-6-6-|
A|---------------------------------|
E|---------------------------------|

E|---------------------------------|
B|-9-9-9-9-9-9-9-9-8-8-8-8-8-8-8-8-|
G|-8-8-8-8-8-8-8-8-8-8-8-8-8-8-8-8-| ...sin ti..
D|-6-6-6-6-6-6-6-6-6-6-6-6-6-6-6-6-| ...No tengo respuestas...
A|---------------------------------|
E|---------------------------------|

E|-----------------|
B|-9-9-9-9-9-9-9-9-|
G|-8-8-8-8-8-8-8-8-| ...ya sé...
D|-6-6-6-6-6-6-6-6-|
A|-----------------|
E|-----------------|

   C# C#m
Oohh!

Final: Acá se juega con los acordes para terminar suave y
       lentamente

    G#    D#
Aaahhaa  uoh
    G#    D#
iehieh
    G#
oouohh

Estos son los acordes:
    EbgdaE
G#  445664
D#  34356X
C#  46664X
C#m 45664X
A#m 666446
Cm  34553X

Espero no haberme equivocado...pero si notan cualquier error
me lo hacen saber a mi correo: alvaro_a132@
Y que viva el Rock Boliviano!
Suggest correction
Give kudos to tab author, rate the tab!
1 2 3 4 5
comments
print report bad tab
guest
You may want to rate the tab now too:
select rating
Wanna post a correction for this tab? Suggest correction