Oops, an error
Loading. Please wait.

Inmortal Tab

8 views 1 this week
no commentswrite comment
1 2 3 4 5
3 more votes to show rating
add to favorites
launch autoscroll
font size
0
reset
how to read this tab
guitar tuner
Autoscroll
slow
fast
+/-
esc
set tempo
stop
Help us to improve Ultimate-Guitar.com Take our survey!
×
Esta es la versión en estudio que esta en el CD ?Mammut?.
En el verso le pueden poner un poco de feelin y tratar de tocar
solo las primeras tres cuerdas de las notas. Y en el coro también
hay arreglos que se hace jugando con los acordes. También se pueden
ayudar con un capó en el 1º traste porque todas las notas son con
puente.

Intro:

E|-------------------|
B|-----4---4h6p4-----|
G|-4h5---5-------5---|
D|-6---------------6-|
A|-------------------|
E|-------------------|

E|-------------------|
B|-------------------|
G|-----3-3h5p3-------|
D|-3h5---------5-----|
A|-6-------------6---|
E|-------------------|

E|------------------------3-|
B|-----6---6h8p6----------3-|
G|-6h7---7-------7------4-4-|
D|-8---------------8--5---5-|
A|--------------------------|
E|--------------------------|

D#              A#
 Hay dentro de mí
G#                   D#
 lo que no puedo explicar
D#             A#
 Hoy quiero decir
G#               D#
 y solo puedo gritar

           G#       D#
Que sigo aquí esperando
          G#        D#     A#
Y sigo aquí donde nadie me ve

Coro:
Cm       A#        G#
  Sintiéndome inmortal
     D#       A#  Cm
de acero por ti...ohohoh
Cm        A#      G#
  cuidando cada paso
     D#       A#  Cm
 que das sin mí...ohohoh

D#                A#
 Hay formas de hablar
G#                D#
 no necesitas mentir
D#              A#
 Se que nunca fui
G#               D#
 la persona ideal para ti

        G#     D#
Sigo aquí esperando
         G#       D#      A#
Y sigo así donde nadie me ve

Coro:
Cm       A#        G#
  Sintiéndome inmortal
     D#       A#  Cm
de acero por ti...ohohoh
Cm        A#      G#
  cuidando cada paso
     D#       A#
que das sin mí
Cm       G#    D#    A#
 Na ra na na ra na ra na
Cm       G#    D#    A#
 Na ra na na ra na ra naha


Solo: Puede ser acompañado con las notas del coro

E|---------------------------------------------------------|
B|---------------------------------------------------------|
G|-8t-10/12-10/8----8--------------------------3t-5t-7t-8t-|
D|---------------10---10-----------------------------------|
A|-----------------------------------8b9-6---6-------------|
E|-----------------------3-6-6-6-8-8-------8---------------|

E|-13/15-13-13h15-15-15-13-13h15p13-11----11h13p11-11----11----|
B|-------------------------------------13-------------13----13-|
G|-------------------------------------------------------------|

E|--------------------------------|
B|-9/11-11-11/9-9-9/8~-8-9-8-6/8~-|
G|-8/10-10-10/8-8-8/7~------------|

                                                    Este es un
Cm       A#        G#       G|-10/12-10/8----8----| arreglo que se
  Sintiéndome inmortal      D|------------10---10-| hace al final
     D#       A#  Cm                               de ?inmortal?
de acero por ti...oh
Cm        A#      G#       Cuando empieza ?cuidando cada paso?
  cuidando cada paso       también empieza un riff que se repite
       D#       A#  Cm     3 veces:
que tu das sin mí                E|----------------------|
                                 B|----------------------|
Cm     A#        G#              G|-7/8-7-8/5-5/12-12/10-|
Ahhh   ahh    ahhh ahh
     D#       A#  Cm
   Ahhh      uhhh
Cm        A#      G#
  cuidando cada paso
     D#       A#
que das sin mí
Cm       G#    D#    A#
 Na ra na na ra na ra na

Estos son los acordes:
    EbgdaE
D#  34356X
A#  667886
G#  445664
Cm  34553X

Espero no haberme equivocado...pero si notan cualquier error
me lo hacen saber a mi correo: alvaro_a132@
Y que viva el Rock Boliviano!
Suggest correction
Give kudos to tab author, rate the tab!
1 2 3 4 5
comments
print report bad tab
guest
You may want to rate the tab now too:
select rating
Wanna post a correction for this tab? Suggest correction