Oops, an error
Loading. Please wait.

Pelados Em Santos Bass Tab

version 1
version 1

Whole song

Interactive

335 views 1 this week
no commentswrite comment
1 2 3 4 5
please rate
add to favorites
launch autoscroll
font size
0
reset
guitar tuner
Tab Pro tools
  • play this tab
  • loop segment
  • change instrument
  • show fretboard
  • metronome
×
Best way to learn
"Pelados Em Santos"
Autoscroll
slow
fast
+/-
esc
set tempo
stop
Contributor
Difficulty
INTRO
------------------------------|
--------77--------77----------|
-5---5-----5---5-----2---2----|
---5---------5---------2------|

-------------------------------|
-44-------44-------------------|
----2---2--------55-----77-----|
------2------333----333----555-|

------------------------------|
------------------------------|
-77-----77--------------------|
----555-----------------------|

VERSE 1 (x3)
------------------------------|
--------77--------77----------|
-5---5-----5---5-----2---2----|
---5---------5---------2------|

-------------------------------|
-44-------44-------------------|
----2---2--------55-----77-----|
------2------333----333----555-|

------------------------------|
------------------------------|
-77-----77--------------------|
----555-----------------------|

THEN:
----------------------7--------|
--------77--------5h7----------|
-5---5-----5---5---------------|
---5---------5-----------------|

---------------------2----------|
--------44-------2-4------------|
-2---2-----2---2----------------|
---2---------2------------------|

--------------------------------|
----------------5---------------|
-----55-----5h7---7-------------|
-333----333---------------------|

--------------------------------|
--------------------------------|
--------------------------------|
-55555555-----------------------|

CHORUS (x2)
--------------------------------------|
--------------------------------------|
--------------------------------------|
-5-3-2-22222-33333-5-3-2-22222-33333--|

THEN:
----------------------------------------------|
----------------------------------------------|
----------------------------------------------|
-5-3-2-22222-33333-55555-3h5555-55555-3h5555--|

--------------------------------------|
--------------------------------------|
--------------------------------------|
-3h5-3h5-3h5-3h5-3h5-5----------------|

VERSE 2 (x2)
------------------------------------|
---77---7---77--7---44--4---44--4---|
-5----5---5---5---2---2---2---2-----|
------------------------------------|

------------------------------------|
------------------------------------|
---55---5---55--5-------------------|
-3----3---3---3---5-----------------|

THEN, IN THE 2ND TIME, YOU'LL DO THIS
-------------------------------------|
-------------------------------------|
-------------------------------------|
-555555------------------------------|

CHORUS
--------------------------------------|
--------------------------------------|
--------------------------------------|
-5-3-2-22222-33333-5-3-2-22222-33333--|

THEN:
----------------------------------------------|
----------------------------------------------|
----------------------------------------------|
-5-3-2-22222-33333-55555-3h5555-55555-3h5555--|

--------------------------------------|
--------------------------------------|
--------------------------------------|
-3h5-3h5-3h5-3h5-3h5-5----------------|

VERSE 3 (x2)
------------------------------------|
---77---7---77--7---44--4---44--4---|
-5----5---5---5---2---2---2---2-----|
------------------------------------|

------------------------------------|
------------------------------------|
---55---5---55--5-------------------|
-3----3---3---3---5-----------------|

END:
------------------------------------|
----/7\/7\/7\/7~--------------------|
------------------------------------|
-5~---------------------------------|
comments
We did not receive enough feedback on this tab! Please rate:
print report bad tab
1 2 3 4 5
I want to post or [tab]
guest
You may want to rate the tab now too:
select rating
Please do not post tabs as comments. Select "correction" instead!