Oops, an error
Loading. Please wait.

Vira Vira Bass Tab

version 1
version 1

Whole song

Interactive

578 views 6 this week
no commentswrite comment
1 2 3 4 5
please rate
add to favorites
launch autoscroll
font size
0
reset
guitar tuner
Tab Pro tools
  • play this tab
  • loop segment
  • change instrument
  • show fretboard
  • metronome
Autoscroll
slow
fast
+/-
esc
set tempo
stop
Contributor
Difficulty
INTRO:

----13-16----------------------13-16----13-16----------------------|
-14----------13-16----13-16-14-------14----------13-16----13-16-14-|
----------14-------14-------------------------14-------14----------|
-------------------------------------------------------------------|

-----------------|
-----------------|
-/7\-------------|
-----------------|

------------------------|
-2-1----------1-2-------|
-----4-2--2-4-----------|
------------------------|

------------------------|
-2-1----------1-2-------|
-----4-2--2-4-----------|
------------------------|

VERSE 1

-------------------------|
-------------------------|
----22----22---22---22---|
-00----00---00---00---00-|

------------------------|
------------------------|
-00-22------------------|
-------0----------------|

CHORUS
-------------------------|
-------------------------|
-22----22----22----0~-2~-|
----00----00----00-------|


THEN, PLAY THIS PART OF THE INTRO AGAIN
------------------------|
-2-1----------1-2-------|
-----4-2--2-4-----------|
------------------------|

------------------------|
-2-1----------1-2-------|
-----4-2--2-4-----------|
------------------------|

VERSE 2

-------------------------|
-------------------------|
----22----22---22---22---|
-00----00---00---00---00-|

------------------------|
------------------------|
-00-22------------------|
-------0----------------|

CHORUS
-------------------------|
-------------------------|
-22----22----22----0~-2~-|
----00----00----00-------|

AGAIN THE INTRO, BUT W/ SOME VARIATIONS
----------------------------------|
-2-1-------------------1-2-(stop)-|
-----4-2-(stop)----2-4------------|
----------------------------------|

--------------------------------|
-222-111--------------1-2-------|
---------2-(stop)-2-4-----------|
--------------------------------|

VERSE 3
-------------------------|
-------------------------|
----22----22---22---22---|
-00----00---00---00---00-|

------------------------|
------------------------|
-00-22------------------|
-------0----------------|

CHORUS
-------------------------|
-------------------------|
-22----22----22----0~-2~-|
----00----00----00-------|

END
------------------------|
-2-1----------1-2-------|
-----4-2--2-4-----------|
------------------------|

------------------------|
-2-1----------1-2-------|
-----4-2--2-4-----------|
------------------------|

~ = vibrato
/ = slide down
\ = slide up
comments
We did not receive enough feedback on this tab! Please rate:
print report bad tab
1 2 3 4 5
I want to post or [tab]
guest
You may want to rate the tab now too:
select rating
Please do not post tabs as comments. Select "correction" instead!