Oops, an error
Loading. Please wait.

Feathers tab

version 1
version 1

Whole song

Interactive

by Man Man
5,415 views 1 this week
2 commentsread comments
1 2 3 4 5
x 3
add to favorites
×
Save as Personal and add changes to this tab that will be seen only by you. Learn more ›
×
You can save this tab as Personal to edit and correct it or add notes. All changes will be seen only by you. Learn more »
launch autoscroll
font size
0
reset
how to read this tab
guitar tuner
edit
Autoscroll
slow
fast
+/-
esc
set tempo
stop
Author
-------------------------------------------------------------------------------
                             Feathers - Man Man
-------------------------------------------------------------------------------
This is a great song off of Six Demon Bag (2006). It's for piano, but here's a 
for guitar. A fun one to sing.

Lyrics:
She feels like a stranger has come in the night,
Stolen her life, and left her with this
Boughs break on ebony toothaches
She's just a flask trapped inside a fall
I know you need to find what you thought you left behind in a past life
I won't question why the only light that you have you gave away
I know you need to find what you thought you left behind in a past life
I won't question why the only light that you have you gave away
She feels like a stranger has come in the night,
Stolen her life, and left her with this

This tab isn't in exact order, but it has all the parts, so it might take a little bit 
piecing together and listening to the song.

Guitar 1
e|---------------------------------------------------------------------------|
B|---------------------------------------------------------------------------|
G|---------------------------------------------------------------------------|
D|--5-5---5-5---5-5---5-5---5-5---5-5---5-5---5-5---3-3---3-3---3-3---3-3----|
A|--6-6---6-6---6-6---6-6---6-6---6-6---6-6---6-6---5-5---5-5---5-5---5-5----|
E|8-----8-----8-----8-----6-----6-----6-----6-----7-----7-----7-----7--------|

e|---------------------------|
B|---------------------------|
G|---------------------------|This progression continues throughout the song.
D|--5-5---5-5---5-5---5-5----|
A|--6-6---6-6---6-6---6-6----|
E|8-----8-----8-----8--------|

Guitar 2
e|------------15----------------------15-------------------------------------|
B|------8-----16----------------8-----16-------------------------------------|
G|------8-----17----------------8-----15-------------------------------------|
D|5-----10----------------5-----8-----------------3---------------------5----|
A|6-----------------------6-----------------------5---------------------6----|
E|8-----------------------6-----------------------7---------------------8----|

  She feels like a stranger has come in the night, stolen her life, and left
e|---------------------------------------------------------------------------|
B|-----------------8-------------------------8------8------8---7---------7---|
G|----8-----7----------10----8-------------------------10--------------------|
D|-------------------------------8-------------------------------------------|
A|---------------------------------------------------------------------------|
E|---------------------------------------------------------------------------|

  her with this. Boughs break on e-bo-ny toothaches, she's just a flask
e|--------------------------------------------11-----15----13----------------|
B|-5--8--7--5----8------8-----8--8----8--11---------------------16-15--------|
G|---------------------------------10----------------------------------------|
D|---------------------------------------------------------------------------|
A|---------------------------------------------------------------------------|
E|---------------------------------------------------------------------------|

  trapped inside a fall. I know you need to find what you thought you left
e|---------------------------------------------------------------------------|
B|15------13-16--15-13---8--7----6-------6---7----8----7---6-----------6-----|
G|-----------------------------------8----------------------------8----------|
D|---------------------------------------------------------------------------|
A|---------------------------------------------------------------------------|
E|---------------------------------------------------------------------------|

  behind in a past life, I won't question why the only light that you had
e|--------------------------------------------------------------------6------|
B|7--8---7--6-------6--7-8--7-----6--------6---7--8-----8--------------------|
G|-------------8----------------------8--------------------------------------|
D|---------------------------------------------------------------------------|
A|---------------------------------------------------------------------------|
E|---------------------------------------------------------------------------|

  you gave a-way-ay-ay-ay
e|---------------------------------------------------------------------------|
B|-----9---8--6--------------------------------------------------------------|
G|---------------8--7--5-----------------------------------------------------|
D|---------------------------------------------------------------------------|
A|---------------------------------------------------------------------------|
E|---------------------------------------------------------------------------|


| /  slide up
| \  slide down
| h  hammer-on
| p  pull-off
| ~  vibrato
| +  harmonic
| x  Mute note
===============================================================================

            
            
Suggest correction
Creating personal tab
Creating personal tab
You can edit any tab online and save it as your Personal.

You can edit, replace or remove any tab part or add personal notes – all changes will be seen only by you.

Personal tabs can be accessed anytime from any device, even offline.
Learn more »
Give kudos to tab author, rate the tab!
1 2 3 4 5
comments
print report bad tab
2 comments total.
0 reply
icanmakeamess 70 Jun 30, 2008 08:12 AM

She feels like a stranger has come in the night, stolen her life, and left
e|---------------------------------------------------------------------------|
B|-----------------8-------------------------8------8------------------------|
G|----8-----7----------10----8-------------------------10--8---7---------7---|
D|-------------------------------8-------------------------------------------|
A|---------------------------------------------------------------------------|
E|---------------------------------------------------------------------------|

her with this. Boughs break on e-bo-ny toothaches, she's just a flask
e|--------------------------------------------11-----15----13----------------|
B|---------------8------8-----8--8----8--11---------------------16-15--------|
G|-5--8--7--5----------------------10----------------------------------------|
D|---------------------------------------------------------------------------|
A|---------------------------------------------------------------------------|
E|---------------------------------------------------------------------------|

The notes were there just on the wrong string :]
Thanks a lot for this, its a very good tab. More Man Man please!

0 reply
padfoot1492 10 Oct 12, 2009 10:07 AM

behind in a past life, I won't question why the only light that you had
e|---------------------------------------------------------------------------|
B|7--8---7--6-------6--7-8--7-----6--------6---7--8-----11----8---7----6-----|
G|-------------8----------------------8--------------------------------------|
D|---------------------------------------------------------------------------|
A|---------------------------------------------------------------------------|
E|---------------------------------------------------------------------------|

you gave a-way-ay-ay-ay
e|---------------------------------------------------------------------------|
B|-7---6---7--6--------------------------------------------------------------|
G|---------------8--7--5-----------------------------------------------------|
D|---------------------------------------------------------------------------|
A|---------------------------------------------------------------------------|
E|---------------------------------------------------------------------------|

Slight variation...

guest
You may want to rate the tab now too:
select rating
Wanna post a correction for this tab? Suggest correction