Oops, an error
Loading. Please wait.

Sferic Waves Tab

1,577 views 3 this week
1 commentread comment
1 2 3 4 5
2 more votes to show rating
add to favorites
launch autoscroll
font size
0
reset
how to read this tab
guitar tuner
×
Best way to learn
"Sferic Waves"
Autoscroll
slow
fast
+/-
esc
set tempo
stop
#----------------------------------PLEASE NOTE---------------------------------#
#This file is the author's own work and represents their interpretation of the #
#song. You may only use this file for private study, scholarship, or research. #
#------------------------------------------------------------------------------#
#
Tabbed by Brian McCall 

SFERIC WAVES - by Man...or Astro-Man?
====== =====   from Project Infinity

D-tuning

*1 (palm muting throughout)

|----------------------------------------------------------------|
|----------------------------------------------------------------|
|-----6-6-----6-6-----9-9-----9-9--------------------------------|
|-----6-6-----6-6-----9-9-----9-9-----7-----6-----5-----6-----7--|
|-8-8-----8-8-----7-7-----7-7-----5-5---5-5---5-5---5-5---5-5----|
|----------------------------------------------------------------|
                                  ^--------play twice------------|

Repeat *1 (gradualy let off palm muting at the end)

*2

|------------------------------------------------------------------|
|------------------------------------------------------------------|
|------------------------------------------------------------------|
|-/5-5-5-0-/5-5-5-0-/5-5-5-0-/8--8-8-----7-----6-----5-----6-----7-|
|-/5-5-5-0-/5-5-5-0-/5-5-5-0-/8--8-8-5-5---5-5---5-5---5-5---5-5---|
|-/5-5-5-0-/5-5-5-0-/5-5-5-0-/8--8-8-------------------------------|

|------------------------------------------------------------------|
|------------------------------------------------------------------|
|------------------------------------------------------------------|
|-/5-5-5-0-/5-5-5-0-/5-5-5-0-/3--3-3-----7-----6-----5-----6-----7-|
|-/5-5-5-0-/5-5-5-0-/5-5-5-0-/3--3-3-5-5---5-5---5-5---5-5---5-5---|
|-/5-5-5-0-/5-5-5-0-/5-5-5-0-/3--3-3-------------------------------|

|-----------------------------------------------------------------|
|-----------------------------------------------------------------|
|-----------------------------------------------------------------|
|-0-0-0-0-0-0-0-0-------------------------------------------------|
|-0-0-0-0-0-0-0-0-------------------------------------------------|
|-0-0-0-0-0-0-0-0...----------------------------------------------|

*3

|-----------------------------------------------------------------|
|-----------------------------------------------------------------|
|-----------------------------------------------------------------|
|-3-3-0-0------3--0---------66-6-5-5-------6--5--------3--0-------|
|---------0--0-------0--0-0----------5-5-5------5--5-5-------0--0-|
|-----------------------------------------------------------------|

|-------------------------------------------------------------------|
|--------------------------------------66-6-6-----------6-----------|
|---------------------------------------------7-7----------7--------|
|---3--0------------------------------------------7-7-7-------7-7-7-|
|-0-------0--0-0-00-3-00-3-00-55555555------------------------------|
|-------------------------------------------------------------------|

|------------------------------------------------------------------|
|-99-9-9-8-8-------/9--8----/14-0-0-6-6-----------6----------------|
|------------7-7-7--------7-/14-0-0-----7-7----------7-------------|
|-------------------------------------------7-7-7-------7-7-7-00-7-|
|------------------------------------------------------------------|
|------------------------------------------------------------------|

|-----------------------------------------------------------------|
|-----------------------------------------------------------------|
|----------------------7-7-7-7-7-7-7-7-7-7-7-7-7------------------|
|-00-7-00-7-0-8-7-5...-7-7-7-7-7-7-7-7-7-7-7-7-7------------------|
|----------------------5-5-5-5-5-5-5-5-5-5-5-5-5.....-------------|
|-----------------------------------------------------------------|
                   ^don't know this part

Repeat *1

*4

|---------------------------------------------------------|--------|
|---------------------------------------------------------|--------|
|-7-7-7---7-7-7---7-7-7-----------------------------------|--------|
|-7-7-7-0-7-7-7-0-7-7-7-3--3-3-5--5-5-5-5-5-5-5-6-5-6-5-3-|-0------|
|-5-5-5-0-5-5-5-0-5-5-5-3--3-3-5--5-5-5-5-5-5-5-6-5-6-5-3-|-0------|
|-------0-------0-------3--3-3-5--5-5-5-5-5-5-5-6-5-6-5-3-|-0------|
                                                        ^repeat

That's all for now...more to come later.
Suggest correction
Give kudos to tab author, rate the tab!
1 2 3 4 5
comments
print report bad tab
1 comment total.
0 reply
mr. cancelled 306 Nov 28, 2010 02:53 PM

I think I figured out the riff that you're missing near the end.

|-----5-------7-------8-------7---5-----------------------|
|-----6-------8-------9-------8---6-----------------------|
|-----7-------9-------10------9---7-----------------------|
|-----7-------9-------10------9---7-----------------------|
|-----5-------7-------8-------7---5-----0-----------------|
|-0-0---0-0-0---0-0-0---0-0-0---0-------0-----------------|
. . . . . . . . . . . .


Arpeggiate the chords when you play them, and if you have one, mess around with the whammy bar on the last D minor and the open D.

guest
You may want to rate the tab now too:
select rating
Wanna post a correction for this tab? Suggest correction