Oops, an error
Loading. Please wait.

Dude Are You Kidding Me Tab

494 views 3 this week
no commentswrite comment
1 2 3 4 5
please rate
add to favorites
launch autoscroll
font size
0
reset
how to read this tab
guitar tuner
Autoscroll
slow
fast
+/-
esc
set tempo
stop
Help us to improve Ultimate-Guitar.com Take our survey!
×
Author
Difficulty
Tuning
novice
D# G# C# F# A# D#
------------------------------------------------------------------------------
                DUDE, ARE YOU KIDDING ME? - MAN OVERBOARD
------------------------------------------------------------------------------

Tabbed by : Boris Paskhaver (bigbadb)
Email     : bp771@nyu.edu

Tuning :    Eb (Half Step Down)
            Eb, Ab, Db, Gb, Bb, eb

Key :       F# Major

INTRO (0:01)

   (x1)
eb|------------------------------------------------------------|
Bb|------------------------------------------------------------|
Gb|------------------------------------------------------------|
Db|--5--5--5-5-5-5--5-5--5-5-5-5--2--2--2-2-2-2--2-2--2-2-2-2--|
Ab|--5--5--5-5-5-5--5-5--5-5-5-5--2--2--2-2-2-2--2-2--2-2-2-2--|
Eb|--3--3--3-3-3-3--3-3--3-3-3-3--0--0--0-0-0-0--0-0--0-0-0-0--|

   (x1)
eb|------------------------------------------------------------|
Bb|------------------------------------------------------------|
Gb|--2--2--2-2-2-2--2-2--2--4-----5--5--5-5-5--5-5-5--5-5-5-5--|
Db|--2--2--2-2-2-2--2-2--2--4-----5--5--5-5-5--5-5-5--5-5-5-5--|
Ab|--0--0--0-0-0-0--0-0--0--2-----3--3--3-3-3--3-3-3--3-3-3-3--|
Eb|------------------------------------------------------------|

VERSE ONE (0:10)

   (x1)
eb|--------------------------------------------------------------------------|
Bb|--------------------------------------------------------------------------|
Gb|-------------------4----------------5-------------------------------------|
Db|--2----------------4----------------5----------------5----------4---------|
Ab|--2----------------2----------------3----------------5----------5---------|
Eb|--0--------------------------------------------------3----------2---------|
  1      Where do I start, how do I   describe the     every    shadow

   (x1)
eb|--------------------------------------------------------------------------|
Bb|--------------------------------------------------------------------------|
Gb|-------------------4----------------5-------------------------------------|
Db|--2----------------4----------------5--------5-5--5-5-5---4-4-------------|
Ab|--2----------------2----------------3--------5-5--5-5-5---5-5--x-x-x-x-x--|
Eb|--0------------------------------------------3-3--3-3-3---2-2--x-x-x-x-x--|
  1    From you being here and if I   wrong     swan dive     overpass

CHORUS (0:31, 1:18)

   (x2)
eb|--------------------------------------------------------------------|
Bb|--------------------------------------------------------------------|
Gb|--5-5-5-5-5-5-5-5-5-5-5-5-5-5-5-5--7-7-7-7-7-7-7-7-7-7-7-7-7-7-7-7--|
Db|--5-5-5-5-5-5-5-5-5-5-5-5-5-5-5-5--7-7-7-7-7-7-7-7-7-7-7-7-7-7-7-7--|
Ab|--3-3-3-3-3-3-3-3-3-3-3-3-3-3-3-3--5-5-5-5-5-5-5-5-5-5-5-5-5-5-5-5--|
Eb|--------------------------------------------------------------------|
  1       Let's just pretend             you know who I am
  2       Let's just pretend             you know who I am

eb|--------------------------------------------------------------------|
Bb|--------------------------------------------------------------------|
Gb|--------------------------------------------------------------------|
Db|--5-5-5-5-5-5-5-5-5-5-5-5-5-5-5-5--2-2-2-2-2-2-2-2-2-2-2-2-2-2-2-2--|
Ab|--5-5-5-5-5-5-5-5-5-5-5-5-5-5-5-5--2-2-2-2-2-2-2-2-2-2-2-2-2-2-2-2--|
Eb|--3-3-3-3-3-3-3-3-3-3-3-3-3-3-3-3--0-0-0-0-0-0-0-0-0-0-0-0-0-0-0-0--|
  1     Tracing my thoughts and you're      making me whole
  2     I'm back home,  I am            without you,       I am

   (x1)
eb|--------------------------------------------------------------------|
Bb|--------------------------------------------------------------------|
Gb|--5-5-5-5-5-5-5-5-5-5-5-5-5-5-5-5-5-5-5-5-5-5-5-5-5-5-5-5-5-5-5-5---|
Db|--5-5-5-5-5-5-5-5-5-5-5-5-5-5-5-5-5-5-5-5-5-5-5-5-5-5-5-5-5-5-5-5---|
Ab|--3-3-3-3-3-3-3-3-3-3-3-3-3-3-3-3-3-3-3-3-3-3-3-3-3-3-3-3-3-3-3-3---|
Eb|--------------------------------------------------------------------|
  1     without you                               you'll never under-

VERSE TWO (0:57)

   (x1)
eb|--------------------------------------------------------------------|
Bb|--------------------------------------------------------------------|
Gb|-------------------4----------------5-------------------------------|
Db|--2----------------4----------------5----------------5--------4-----|
Ab|--2----------------2----------------3----------------5--------5-----|
Eb|--0--------------------------------------------------3--------2-----|
  1  -stand, your     I wouldn't       lock on your     keyless

   (x1)
eb|--------------------------------------------------------|
Bb|--------------------------------------------------------|
Gb|------------------------------4-4--4-4-4--4-4-4--4-4-4--|
Db|--2-2--2-2-2--2-2-2--2-2-2--2-4-4--4-4-4--4-4-4--4-4-4--|
Ab|--2-2--2-2-2--2-2-2--2-2-2--2-2-2--2-2-2--2-2-2--2-2-2--|
Eb|--0-0--0-0-0--0-0-0--0-0-0--0---------------------------|
     P.M-------------------------------------------------|
  1   Cold air has made me numb      and this town seems

   (x1)
eb|--------------------------------------------------------|
Bb|--------------------------------------------------------|
Gb|--4-5-5--5-5-5--5-5-5--5-5-5----------------------------|
Db|--4-5-5--5-5-5--5-5-5--5-5-5--5-5--5-5-5--4-4--x-x-x-x--|
Ab|--2-3-3--3-3-3--3-3-3--3-3-3--5-5--5-5-5--5-5--x-x-x-x--|
Eb|------------------------------3-3--3-3-3--2-2--x-x-x-x--|
     P.M-----------------------|
  1  so diseased without you so  write more songs

BRIDGE (1:44)

   (x2)
eb|-----------------------------------------------------------|
Bb|-----------------------------------------------------------|
Gb|------------------------------4--4-4-4--4-4-4--4-4-4--4-4--|
Db|--2--2-2-2--2-2-2--2-2-2--2-2-4--4-4-4--4-4-4--4-4-4--4-4--|
Ab|--2--2-2-2--2-2-2--2-2-2--2-2-2--2-2-2--2-2-2--2-2-2--2-2--|
Eb|--0--0-0-0--0-0-0--0-0-0--0-0------------------------------|
  1     At    night   I        dream  of how things
  2     At    night   I        blame  myself for

eb|-----------------------------------------------------------|
Bb|-----------------------------------------------------------|
Gb|--5--5-5-5--5-5-5--5-5-5--5-5-5--5-5-5--5-5-5--5-5-5--5-5--|
Db|--5--5-5-5--5-5-5--5-5-5--5-5-5--5-5-5--5-5-5--5-5-5--5-5--|
Ab|--3--3-3-3--3-3-3--3-3-3--3-3-3--3-3-3--3-3-3--3-3-3--3-3--|
Eb|-----------------------------------------------------------|
  1    could    have    been
  2    how      it      went

FINAL CHORUS (2:05)

   (x1)
eb|--------------------------------------------------------------------------|
Bb|--------------------------------------------------------------------------|
Gb|--5-5-5-5-5-5-5-5-5-5-5-5-5-5-5-5--7-7-7-7-7-7-7-7-7-7-7-7-7-7-7-7--------|
Db|--5-5-5-5-5-5-5-5-5-5-5-5-5-5-5-5--7-7-7-7-7-7-7-7-7-7-7-7-7-7-7-7--------|
Ab|--3-3-3-3-3-3-3-3-3-3-3-3-3-3-3-3--5-5-5-5-5-5-5-5-5-5-5-5-5-5-5-5--------|
Eb|--------------------------------------------------------------------------|
  1       Let's just pretend             you know who I am

   (x1)
eb|--------------------------------------------------------------------------|
Bb|--------------------------------------------------------------------------|
Gb|--------------------------------------------------------------------------|
Db|--5-5-5-5-5-5-5-5-5-5-5-5-5-5-5-5--2-2-2-2-2-2-2-2-2-2-2-2-2-2-2-2--------|
Ab|--5-5-5-5-5-5-5-5-5-5-5-5-5-5-5-5--2-2-2-2-2-2-2-2-2-2-2-2-2-2-2-2--------|
Eb|--3-3-3-3-3-3-3-3-3-3-3-3-3-3-3-3--0-0-0-0-0-0-0-0-0-0-0-0-0-0-0-0--------|
  1     Tracing my thoughts and you're      making me whole

   (x1)
eb|--------------------------------------------------------------------------|
Bb|--------------------------------------------------------------------------|
Gb|--5-5-5-5-5-5-5-5-5-5-5-5-5-5-5-5--7-7-7-7-7-7-7-7-7-7-7-7-7-7-7-7--------|
Db|--5-5-5-5-5-5-5-5-5-5-5-5-5-5-5-5--7-7-7-7-7-7-7-7-7-7-7-7-7-7-7-7--------|
Ab|--3-3-3-3-3-3-3-3-3-3-3-3-3-3-3-3--5-5-5-5-5-5-5-5-5-5-5-5-5-5-5-5--------|
Eb|--------------------------------------------------------------------------|
  1       Let's just pretend             you know who I am

   (x1)
eb|------------------------------------------------------3-------------------|
Bb|------------------------------------------------------4-------------------|
Gb|-------------------------------------5----------------5--  LET  RING  ----|
Db|--5-----------------2----------------5--  LET RING  --5-------------------|
Ab|--5--  LET RING  ---2--  LET RING  --3----------------3-------------------|
Eb|--3-----------------0-----------------------------------------------------|
  1  Back home      without you      without you           You'll never under-

END ON (2:21):

   (x1)
eb|-------------------|
Bb|-------------------|
Gb|-------------------|
Db|--5----------------|
Ab|--5--  LET RING  --|
Eb|--3----------------|
  1  stand
Suggest correction
What's this?
You can suggest a correction to this tab. Community and Mods will review your correction and vote to approve or reject it.
comments
We did not receive enough feedback on this tab! Please rate:
print report bad tab
1 2 3 4 5
guest
You may want to rate the tab now too:
select rating
Please do not post tabs as comments. Select "correction" instead!