Oops, an error
Loading. Please wait.

Heart Attack album bass

version 1
version 1

Album

Whole song

76 views 1 this week
no commentswrite comment
1 2 3 4 5
3 more votes to show rating
add to favorites
×
Save as Personal and add changes to this tab that will be seen only by you. Learn more ›
×
You can save this tab as Personal to edit and correct it or add notes. All changes will be seen only by you. Learn more »
launch autoscroll
font size
0
reset
guitar tuner
edit
Autoscroll
slow
fast
+/-
esc
set tempo
stop
Author
Difficulty
-------------------------------------------------------------------------------
                             HEART ATTACK (ALBUM) – Man Overboard
-------------------------------------------------------------------------------
Tabbed by: cesare_moon
E-mail: 

Artist: Man Overboard
Album: Heart Attack
Year: 2013

Tuning: EADG

Tracklist –

1.      Secret Pain
2.      Boy Without Batteries
3.      Where I Left You
4.      Heart Attack
5.      White Lies
6.      S.A.D
7.      Suppy
8.      How To Hide Your Feelings
9.      Swan Dive
10.     Hoodie Song
11.     Re – Run
12.     Open Season
13.     Damage Control
14.     Wide Awake




1. SECRET PAIN

Intro – 00.12 – 00.25

G|---------------------------------------------------------------------------|
D|---------------------------------------------------------------------------|
A|---------------------------------2-2-2-2-2-2-2-2---------------------------|
E|-3-3-3-3-3-3-3-3-3-3-3-3-3-3-3-3-----------------1-1-1-1-1-1-1-1-----------| x2

Verse – 00.25 – 01.08

G|---------------------------------------------------------------------------|
D|---------------------------------------------------------------------------|
A|---------------------------------------------------------------------------|
E|-3-3-3-3-3-3-3-3-3-3-3-3-3-3-5-5-7-7-7-7-7-7-3-3-1-1-1-1-1-1-1-1-----------| x2

G|---------------------------------------------------------------------------|
D|---------------------------------------------------------------------------|
A|---------------------------------------------------------------------------|
E|-3-3-----------0---7-------------3-3-----------0--7------------------------| 

G|---------------------------------------------------------------------------|
D|---------------------------------------------------------------------------|
A|---------------------------------------------------------------------------|
E|-3-3-3-3-3-3-3-3-3-3-3-3-3-3-5-5-7-7-7-7-7-7-3-3-1-1-1-1-1-1-1-1-----------| x2

G|---------------------------------------------------------------------------|
D|---------------------------------------------------------------------------|
A|---------------------------------------------------------------------------|
E|-3-3-----------0---7-------------3-3-----------0---------------------------| 

Chorus – 01.08 – 01.33

G|---------------------------------------------------------------------------|
D|---------------------------------------------------------------------------|
A|---------------------------------------------------------------------------|
E|-7-7-7-7-7-7-7-7----0--0--0------3-3-3-3-3-3-3-3-3-3-3-3-3-5-9-7-----------|

G|---------------------------------------------------------------------------|
D|---------------------------------------------------------------------------|
A|---------------------------------------------------------------------------|
E|-7-7-7-7-7-7-7-7----0--0--0------3-3-3-3-3-3-3-3-3-3-3-3-3-3-0-0-----------|

G|---------------------------------------------------------------------------|
D|---------------------------------------------------------------------------|
A|---------------------------------------------------------------------------|
E|-0-0-0-0-0-0-0-0-1-1-1-1-1-1-1-1-3-3-3-3-3-3-3-3-7-7-7-7-7-7-7-7-----------|

G|---------------------------------------------------------------------------|
D|---------------------------------------------------------------------------|
A|-----------------3-3-3-3-3-3-3-3-------------------------------------------|
E|-0-0-0-0-0-0-0-0-----------------3-3-3-3-3-3-3-3-7-7-7-7-7-7-7-7-----------|

Bridge – 01.40 – 2.00

G|---------------------------------------------------------------------------|
D|---------------------------------------------------------------------------|
A|---------------------------------------------------------------------------|
E|-------------------------------------------------7-7-------7---------------|

G|---------------------------------------------------------------------------|
D|---------------------------------------------------------------------------|
A|---------------------------------------------------------------------------|
E|-7-7-7-7-7-7-7-7-7-7-7-7-7-7-7-7-7-7-7-7-7-7-7-7-7-7-7-7-7-7-7-7-----------|

Chorus – 02.00 – 02.25

G|---------------------------------------------------------------------------|
D|---------------------------------------------------------------------------|
A|---------------------------------------------------------------------------|
E|-7-7-7-7-7-7-7-7----0--0--0------3-3-3-3-3-3-3-3-3-3-3-3-3-5-9-7-----------|

G|---------------------------------------------------------------------------|
D|---------------------------------------------------------------------------|
A|---------------------------------------------------------------------------|
E|-7-7-7-7-7-7-7-7----0--0--0------3-3-3-3-3-3-3-3-3-3-3-3-3-3-0-0-----------|

G|---------------------------------------------------------------------------|
D|---------------------------------------------------------------------------|
A|---------------------------------------------------------------------------|
E|-0-0-0-0-0-0-0-0-1-1-1-1-1-1-1-1-3-3-3-3-3-3-3-3-7-7-7-7-7-7-7-7-----------|

G|---------------------------------------------------------------------------|
D|---------------------------------------------------------------------------|
A|-----------------3-3-3-3-3-3-3-3-------------------------------------------|
E|-0-0-0-0-0-0-0-0-----------------3-3-3-3-3-3-3-3-7-7-7-7-7-7-7-7-----------|

Outro – 02.25 – End.

G|---------------------------------------------------------------------------|
D|---------------------------------------------------------------------------|
A|---------------------------------2-2-2-2-2-2-2-2---------------------------|
E|-3-3-3-3-3-3-3-3-3-3-3-3-3-3-3-3-----------------1-1-1-1-1-1-1-1-----------| x2

G|---------------------------------------------------------------------------|
D|---------------------------------------------------------------------------|
A|---------------------------------------------------------------------------|
E|-3-3-----------0---7-------------------------------------------------------| 





2. BOY WITHOUT BATTERIES

Verse – 00.00 – 00.19   

G|---------------------------------------------------------------------------|
D|---------------------------------------------------------------------------|
A|---------------------------------------------------------------------------|
E|-7-7-7-7-7-7-7-7-7-7-7-7-7-7-7-7-3-3-3-3-3-3-3-3-1-1-1-1-1-1-1-1-----------| 

G|---------------------------------------------------------------------------|
D|---------------------------------------------------------------------------|
A|---------------------------------------------------------------------------|
E|-7-7-7-7-7-7-7-7-7-7-7-7-7-7-7-7-3-3-3-3-3-3-3-3-1~----------7/1-----------| 


Chorus – 00.19 – 00.49

G|---------------------------------------------------------------------------|
D|---------------------------------------------------------------------------|
A|-7-7-7-7----7--7-----------------------------------------------------------|
E|-----------------8-8-8-8-8-8-8-8-3-3-3-3-3-3-3-3-7-7-7-7-7-7-7-7-----------|

G|---------------------------------------------------------------------------|
D|---------------------------------------------------------------------------|
A|-7-7-7-7----7--7-----------------------------------------------------------|
E|-----------------8-8-8-8-8-8-8-8-0-0-0-0-0-0-0-0-1-1-1-1-1-1-1-1-----------|

G|---------------------------------------------------------------------------|
D|---------------------------------------------------------------------------|
A|-2-2-2-2-3-3-3-3-5-5-5-5-7-7-7-7-2-2-2-2-3-3-3-3-5-5-5-5-7-7-7-7-----------|
E|---------------------------------------------------------------------------|

G|----------------------|
D|----------------------|
A|-7--------------------|
E|----1--1--1--1-1------|

Verse – 00.49 – 01.08 

G|---------------------------------------------------------------------------|
D|---------------------------------------------------------------------------|
A|---------------------------------------------------------------------------|
E|-7-7-7-7-7-7-7-7-7-7-7-7-7-7-7-7-3-3-3-3-3-3-3-3-1-1-1-1-1-1-1-1-----------| x2

Chorus – 01.08 – 01.26

G|---------------------------------------------------------------------------|
D|---------------------------------------------------------------------------|
A|-7-7-7-7----7--7-----------------------------------------------------------|
E|-----------------8-8-8-8-8-8-8-8-3-3-3-3-3-3-3-3-7-7-7-7-7-7-7-7-----------|

G|---------------------------------------------------------------------------|
D|---------------------------------------------------------------------------|
A|-7-7-7-7----7--7-----------------------------------------------------------|
E|-----------------8-8-8-8-8-8-8-8-0-0-0-0-0-0-0-0-1-1-1-1-1-1-1-1-----------|

Bridge – 01.26 – 02.03

G|---------------------------------------------------------------------------|
D|---------------------------------------------------------------------------|
A|---------------------------------------------------------------------------|
E|-0-0-0-0-1-1-1-1-3-3-3-3-3-3-3-3-0-0-0-0-1-1-1-1-3-3-3-3-3-3-3-3-----------| x2

G|---------------------------------------------------------------------------|
D|---------------------------------------------------------------------------|
A|---------------------------------------------------------------------------|
E|-7-7-7-7-7-7-7-7-7-7-7-7-7-7-7-7-0-0-0-0-0-0-0-0-0-0-7-0-0-0-7-0-----------|

G|---------------------------------------------------------------------------|
D|---------------------------------------------------------------------------|
A|---------------------------------------------------------------------------|
E|-3-3-3-3-3-3-3-3-1-1-1-1-1-1-1-1-0-0-0-0-0-0-0-0-7-7-7-7-7-7-7-7-----------|

Chorus – 02.03 – End. 

G|---------------------------------------------------------------------------|
D|---------------------------------------------------------------------------|
A|-2-2-2-2-3-3-3-3-5-5-5-5-7-7-7-7-2-2-2-2-3-3-3-3-5-5-5-5-7-7-7-7-----------|
E|---------------------------------------------------------------------------|

G|---------------------------|
D|---------------------------|
A|-7-------------------------|
E|----1--1--1--1-1------7~---|



3. WHERE I LEFT YOU

Intro – 00.07 – 00.18

G|---------------------------------------------------------------------------|
D|---------------------------------------------------------------------------|
A|---------------------------------------------------------------------------|
E|-7\0--0-0-0-0-0-0-0-4-0-0-0-0-0-0-0-8-0-0-0-0-0-0-0-4-0-0-0-0-4-0-8--------| 

Verse – 00.18 – 00.37

G|---------------------------------------------------------------------------|
D|---------------------------------------------------------------------------|
A|---------------------------------------------3-----------------------------|
E|-0-0-0-0-0-0-0-4-8-8-8-8-8-8-8-8-0-0-0-0-0-0---4-8-8-8-8-8-8-8-8-----------| x2

Chorus – 00.37 – 00.56

G|---------------------------------------------------------------------------|
D|---------------------------------------------------------------------------|
A|---------------------------------------------------------------------------|
E|-0---0-0---0-0-0--0--0--0---0-0--8--8--8-8-8-8-8-4--4--4-4-4-4-4-----------| x2

Verse – 00.56 – 01.15

G|---------------------------------------------------------------------------|
D|---------------------------------------------------------------------------|
A|---------------------------------------------3-----------------------------|
E|-0-0-0-0-0-0-0-4-8-8-8-8-8-8-8-8-0-0-0-0-0-0---4-8-8-8-8-8-8-8-8-----------| x2

Chorus – 01.15 – 01.34

G|---------------------------------------------------------------------------|
D|---------------------------------------------------------------------------|
A|---------------------------------------------------------------------------|
E|-0---0-0---0-0-0--0--0--0---0-0--8--8--8-8-8-8-8-4--4--4-4-4-4-4-----------| x2


Bridge – 01.34 – 02.13

G|---------------------------------------------------------------------------|
D|---------------------------------------------------------------------------|
A|---------------------------------------------------------------------------|
E|-0~------------------------------------------------------------------------|

G|---------------------------------------------------------------------------|
D|---------------------------------------------------------------------------|
A|---------------------------------------------------------------------------|
E|-0~-------------8~---------------0-0-0-0-0-0-0-0-8-8-8-8-8-8-8-8-----------|

G|---------------------------------------------------------------------------|
D|---------------------------------------------------------------------------|
A|---------------------------------------------------------------------------|
E|-0---0-0---0-0-0--0--0--0---0-0--3--3--3-3-3-3-3-4--4--4-4-4-4-4-----------| x2

Chorus – 02.13 – End.

G|---------------------------------------------------------------------------|
D|---------------------------------------------------------------------------|
A|---------------------------------------------------------------------------|
E|-0---0-0---0-0-0--0--0--0---0-0--8--8--8-8-8-8-8-4--4--4-4-4-4-4-----------| 

G|---------------------------------------------------------------------------|
D|---------------------------------------------------------------------------|
A|---------------------------------------------------------------------------|
E|-0---0-0---0-0-0--0--0--0---0-0--8--8--8-8-8-8-8-4--4--4-4-4-4-4----0~-----| 





4. HEART ATTACK

Intro – 00.00 – 00.02

G|---------------------------------------------------------------------------|
D|---------------------------------------------------------------------------|
A|---------------------------------------------------------------------------|
E|-9-9-9-9-9-9-9-9-9-9-9-9-9-9-9-9-------------------------------------------|

Verse – 00.02 – 00.46

G|---------------------------------------------------------------------------|
D|---------------------------------------------------------------------------|
A|-4x--------------4-----------------4x-------4---------4x------7/2----------|
E|---------------4---1-4x-------------------4---1-4x----------7--------------|

G|-------------------------------------------|
D|-------------------------------------------|
A|-------------------------------------------|
E|-9-9-9-9-9/1-1-1-1--9-9-9-9-9/1-1-1-4-4----| 

G|-------------------------------------------|
D|-------------------------------------------|
A|-------------------------------------------|
E|-9-9-9-9-9/1-1-1-1--9-9-9-9-9/1-1-1-1-1----| 

G|---------------------------------------------------------------------------|
D|---------------------------------------------------------------------------|
A|-4x--------------4--------4x-----3-4-4x-----4---------4x------7/2----------|
E|---------------4---1-4x--------4----------4---1-4x----------7--------------|

G|-------------------------------------------|
D|-------------------------------------------|
A|-------------------------------------------|
E|-9-9-9-9-9/1-1-1-1--9-9-9-9-9/1-1-1-4-4----| 

G|-------------------------------------------|
D|-------------------------------------------|
A|-------------------------------------------|
E|-9-9-9-9-9/1-1-1-1--9-9-9-9-9/1-1-1-1-1----| 

Chorus – 00.46 – 01.10 

G|---------------------------------------------------------------------------|
D|---------------------------------------------------------------------------|
A|-4---4---4-4---4-4-----3-4--------------------3-4---3----------------------|
E|---------------------4-----4---4---4-4---4-4------4---1--------------------|

G|---------------------------------------------------------------------------|
D|---------------------------------------------------------------------------|
A|-----------------------3----4-----3----------------------------------------|
E|-2---2---2-2---2-2---4---3-----------4-3-------3--2--1---------------------|

G|---------------------------------------------------------------------------|
D|---------------------------------------------------------------------------|
A|-4---4---4-4---4-4-----3-4--------------------3-4---3----------------------|
E|---------------------4-----4---4---4-4---4-4------4---1--------------------|

G|---------------------------------------------------------------------------|
D|---------------------------------------------------------------------------|
A|-----------------------3----4-----3----------------------------------------|
E|-1---1---1-1---1-1---4---3-----------4-3-------3--2--1---------------------|

Verse – 01.10 – 01.32

G|-----------------------------------------------------------------------------------|
D|-----------------------------------------------------------------------------------|
A|-4-4x------------4---------4x---3-4-5-4-3-----------4x---------4x-------3x---------|
E|---------------4---1-4x-------4-----------4-3-2-----------------------4------------|

G|-------------------------------------------|
D|-------------------------------------------|
A|-------------------------------------------|
E|-9-9-9-9-9/1-1-1-1--9-9-9-9-9/1-1-1-4-4----| 

G|-------------------------------------------|
D|-------------------------------------------|
A|-------------------------------------------|
E|-9-9-9-9-9/1-1-1-1--9-9-9-9-9/1-1-1-1-1----| 

Chorus – 01.32 – 01.56

G|---------------------------------------------------------------------------|
D|---------------------------------------------------------------------------|
A|-4---4---4-4---4-4-----3-4--------------------3-4---3----------------------|
E|---------------------4-----4---4---4-4---4-4------4---1--------------------|

G|---------------------------------------------------------------------------|
D|---------------------------------------------------------------------------|
A|-----------------------3----4-----3----------------------------------------|
E|-2---2---2-2---2-2---4---3-----------4-3-------3--2--1---------------------|

G|---------------------------------------------------------------------------|
D|---------------------------------------------------------------------------|
A|-4---4---4-4---4-4-----3-4--------------------3-4---3----------------------|
E|---------------------4-----4---4---4-4---4-4------4---1--------------------|

G|---------------------------------------------------------------------------|
D|---------------------------------------------------------------------------|
A|-----------------------3----4-----3----------------------------------------|
E|-1---1---1-1---1-1---4---3-----------4-3-------3--2--1---------------------|

Bridge – 01.56 – 02.29

G|---------------------------------------------------------------------------------|
D|---------------------------------------------------------------------------------|
A|--------------------------------------------------------------------------4-4----|
E|-0-0-0-0-0-8-8-8--9-9-9-9-9-9-1-1--9-9-9-9-9-9-9-9--9-9-9-9-7-7-7-7-2-2-2--------|

G|---------------------------------------------------------------------------|
D|---------------------------------------------------------------------------|
A|----------------------------------------------------------------------4-4--|
E|-9-9-9-9-9-9-1-1--9-9-9-9-9-9-9-9---------------9-9-9-9-7-7-7-7-2-2-2------|

G|---------------------------------------------------------------------------|
D|---------------------------------------------------------------------------|
A|---------------------------------------------------------------------------|
E|-9-9-9-9-9-9-9-9-1-1-1-1-1-1-1-1-9-9-9-9-9-9-9-9-9-9-9-9-9-9-9-9-----------|

G|---------------------------------------------------------------------------|
D|---------------------------------------------------------------------------|
A|---------------------------------------------------------------------------|
E|-2-2-2-2-2-2-2-2-7-7-7-7-7-7-7-7-2-2-2-2-2-2-2-2-7-7-7-7-7-7-7-7-----------|

Chorus – 02.29 – End.

G|---------------------------------------------------------------------------|
D|---------------------------------------------------------------------------|
A|---------------------------------------------------------------------------|
E|-9~------------------------------------------------------------------------|

G|---------------------------------------------------------------------------|
D|---------------------------------------------------------------------------|
A|-4---4---4-4---4-4-----3-4--------------------3-4---3----------------------|
E|---------------------4-----4---4---4-4---4-4------4---1--------------------|

G|---------------------------------------------------------------------------|
D|---------------------------------------------------------------------------|
A|-----------------------3----4-----3----------------------------------------|
E|-1---1---1-1---1-1---4---3-----------4-3------2--2--2--2--2--2--2--2-------|

G|---------------------------------------------------------------------------|
D|---------------------------------------------------------------------------|
A|-4---4---4-4---4-4-----3-4--------------------3-4---3----------------------|
E|---------------------4-----4---4---4-4---4-4------4---1--------------------|

G|---------------------------------------------------------------------------|
D|---------------------------------------------------------------------------|
A|-----------------------3----4-----3----------------------------------------|
E|-2---2---2-2---2-2---4---3-----------4-3-------9~--------------------------|




5. WHITE LIES

Intro – 00.06 – 00.18

G|---------------------------------------------------------------------------|
D|---------------------------------------------------------------------------|
A|---------------------------------------------------------------------------|
E|-0-0-0-0-0-0-0-0-7-7-7-7-9-9-9-9-0-0-0-0-0-0-0-0-7-7-7-7-9-9-9-9-----------|

G|---------------------------------------------------------------------------|
D|---------------------------------------------------------------------------|
A|---------------------------------------------------------------------------|
E|-0-0-0-0-0-0-0-0-7-7-7-7-9-9-9-9-7~----------------------------------------|

Verse – 00.18 – 00.41

G|---------------------------------------------------------------------------|
D|---------------------------------------------------------------------------|
A|---------------------------------2-2-2-2-2-2-2-2-2-2-2-2-2-2-2-2-3---------|
E|-0-0-0-0-0-0-0-0-2-2-2-2-2-2-2-2-------------------------------------------|

G|---------------------------------------------------------------------------|
D|---------------------------------------------------------------------------|
A|---------------------------------2-2-2-2-2-2-2-2-2-2-2-2-2-2-2-2-3---------|
E|-4-4-4-4-4-4-4-4-2-2-2-2-2-2-2-2-------------------------------------------|

G|---------------------------------------------------------------------------|
D|---------------------------------------------------------------------------|
A|-------------------------------------------------2-2-2-2-2-2-2-2-3---------|
E|-0-0-0-0-0-0-0-0-2-2-2-2-2-2-2-2-4-4-4-4-4-4-4-4---------------------------|

G|---------------------------------------------------------------------------|
D|---------------------------------------------------------------------------|
A|---------------------------------2-2-2-2-2-2-2-2-2-2-2-2-2-2-2-2-2---------|
E|-0-0-0-0-0-0-0-0-2-2-2-2-2-2-2-2-------------------------------------------|

Pre-chorus – 00.41 – 00.53

G|---------------------------------------------------------------------------|
D|---------------------------------------------------------------------------|
A|---------------------------------------------------------------------------|
E|-0-0-----------------------------7-7-7-7-7-7-7-7-9-9-9-9-9-9-9-9-----------|

G|---------------------------------------------------------------------------|
D|---------------------------------------------------------------------------|
A|---------------------------------------------------------------------------|
E|-0-0-----------------------------7-7-7-7-7-7-7-7-9-9-------9---9-----------|

Chorus – 00.53 – 01.06

G|---------------------------------------------------------------------------|
D|---------------------------------------------------------------------------|
A|-2-2-2-2-2-2-2-2-----------------4-4-4-4-4-4-4-4-4-4-4-4-4-4-4-4-----------|
E|-----------------2-2-2-2-2-2-2-2-------------------------------------------|

G|---------------------------------------------------------------------------|
D|---------------------------------------------------------------------------|
A|-2-2-2-2-2-2-2-2-----------------4-4-4-4-4-4-4-4-4-4-4-4-4-4-4-4-----------|
E|-----------------0-0-0-0-0-0-0-0-------------------------------------------|

G|-------------------------|
D|-------------------------|
A|-2-2-2-2-2-2-2-2-4~------|
E|-------------------------|

Intro – 01.06 – 01.14

G|---------------------------------------------------------------------------|
D|---------------------------------------------------------------------------|
A|---------------------------------------------------------------------------|
E|-0-0-0-0-0-0-0-0-7-7-7-7-9-9-9-9-0-0-0-0-0-0-0-0-7-7-7-7-9-9-9-9-----------|

Verse – 01.14 – 01.37

G|---------------------------------------------------------------------------|
D|---------------------------------------------------------------------------|
A|---------------------------------2-2-2-2-2-2-2-2-2-2-2-2-2-2-2-2-3---------|
E|-0-0-0-0-0-0-0-0-2-2-2-2-2-2-2-2-------------------------------------------|

G|---------------------------------------------------------------------------|
D|---------------------------------------------------------------------------|
A|---------------------------------2-2-2-2-2-2-2-2-2-2-2-2-2-2-2-2-3---------|
E|-4-4-4-4-4-4-4-4-2-2-2-2-2-2-2-2-------------------------------------------|

G|---------------------------------------------------------------------------|
D|---------------------------------------------------------------------------|
A|-------------------------------------------------2-2-2-2-2-2-2-2-3---------|
E|-0-0-0-0-0-0-0-0-2-2-2-2-2-2-2-2-4-4-4-4-4-4-4-4---------------------------|

G|---------------------------------------------------------------------------|
D|---------------------------------------------------------------------------|
A|---------------------------------2-2-2-2-2-2-2-2-2-2-2-2-2-2-2-2-2---------|
E|-0-0-0-0-0-0-0-0-2-2-2-2-2-2-2-2-------------------------------------------|

Pre-chorus – 01.37 – 01.43

G|---------------------------------------------------------------------------|
D|---------------------------------------------------------------------------|
A|---------------------------------------------------------------------------|
E|-0-0-----------------------------7-7-7-7-7-7-7-7-9-9-------9---9-----------|

Chorus – 01.43 – 01.58

G|---------------------------------------------------------------------------|
D|---------------------------------------------------------------------------|
A|-2-2-2-2-2-2-2-2-----------------4-4-4-4-4-4-4-4-4-4-4-4-4-4-4-4-----------|
E|-----------------2-2-2-2-2-2-2-2-------------------------------------------|

G|---------------------------------------------------------------------------|
D|---------------------------------------------------------------------------|
A|-2-2-2-2-2-2-2-2-----------------4-4-4-4-4-4-4-4-4-4-4-4-4-4-4-4-----------|
E|-----------------0-0-0-0-0-0-0-0-------------------------------------------|

G|-------------------------|
D|-------------------------|
A|-2-2-2-2-2-2-2-2-4~------|
E|-------------------------|


Bridge – 01.58 – 02.22

G|--------------------------------------|
D|--------------------------------------|
A|--------------------------------------|
E|-0-0-0-0-0-0-0-0-7-7-7-7-9-9-9-9------|

G|---------------------------------------------------------------------------|
D|---------------------------------------------------------------------------|
A|---------------------------------------------------------------------------|
E|-0-0-0-0-0-0-0-0-7-7-7-7-9-9-9-9-0-0-0-0-0-0-0-0-7-7-7-7-9-9-9-9-----------| x2

G|---------------------------------------------------------------------------|
D|---------------------------------------------------------------------------|
A|---------------------------------------------------------------------------|
E|-7-----7----7-7--9------9---9---9-0--0--0--0--0--0--0--0--0--0--0----------|

G|---------------------------------------|
D|---------------------------------------|
A|---------------------------------------|
E|-7------7-7---7—9~---------------------|

Chorus – 02.22 – End.

G|---------------------------------------------------------------------------|
D|---------------------------------------------------------------------------|
A|-2-2-2-2-2-2-2-2-----------------4-4-4-4-4-4-4-4-4-4-4-4-4-4-4-4-----------|
E|-----------------2-2-2-2-2-2-2-2-------------------------------------------|

G|---------------------------------------------------------------------------|
D|---------------------------------------------------------------------------|
A|-2-2-2-2-2-2-2-2-----------------4-4-4-4-4-4-4-4-4-4-4-4-4-4-4-4-----------|
E|-----------------0-0-0-0-0-0-0-0-------------------------------------------|

G|---------------------------------------------------------------------------|
D|---------------------------------------------------------------------------|
A|-2-2-2-2-2-2-2-2-----------------4-4-4-4-4-4-4-4-4-4-4-4-4-4-4-4-----------|
E|-----------------2-2-2-2-2-2-2-2-------------------------------------------|

G|---------------------------------------------------------------------------|
D|---------------------------------------------------------------------------|
A|-2-2-2-2-2-2-2-2-----------------4-4-4-4-4-4-4-4-4-4-4-4-4-4-4-4-----------|
E|-----------------0-0-0-0-0-0-0-0-------------------------------------------|

G|---------------------------------------------------------------------------|
D|---------------------------------------------------------------------------|
A|-2-2-2-2-2-2-2-2-----------------4-4-4-4-4-4-4-4-4-4-4-4-4-4-4-4-----------|
E|-----------------2-2-2-2-2-2-2-2-------------------------------------------|

G|---------------------------------------------------------------------------|
D|---------------------------------------------------------------------------|
A|-2-2-2-2-2-2-2-2-----------------4~----------------------------------------|
E|-----------------0-0-0-0-0-0-0-0-------------------------------------------|




6. S.A.D

Verse – 00.01 – 00.24

G|---------------------------------------------------------------------------|
D|---------------------------------------------------------------------------|
A|---------------------------------------------------------------------------|
E|-2-2-2-2-2-2-2-2-1-1-1-1-1-1-1-1-7-7-7-7-7-7-7-7-7-7-7-7-7-7-9-4-----------| x3

G|---------------------------------------------------------------------------|
D|---------------------------------------------------------------------------|
A|---------------------------------------------------------------------------|
E|-2-2-2-2-2-2-2-2-1-1-1-1-1-1-1-1-7-7-7-7-7-7-7-7-7-7-7-7-7-7---------------|

Chorus – 00.24 – 00.47

G|---------------------------------------------------------------------------|
D|---------------------------------------------------------------------------|
A|---------------------------------------------------------------------------|
E|-2-2-2---------------4-4-4--------------7-7-6-7---------7-7-6-7---4~-------|

G|---------------------------------------------------------------------------|
D|---------------------------------------------------------------------------|
A|---------------------------------------------------------------------------|
E|-2-2-2---------------4-4-4--------------7~--------------------7-9-4--------|

G|---------------------------------------------------------------------------|
D|---------------------------------------------------------------------------|
A|---------------------------------------------------------------------------|
E|-2-2-2---------------4-4-4--------------7-7-6-7---------7-7-6-7---4~-------|

G|---------------------------------------------------------------------------|
D|---------------------------------------------------------------------------|
A|---------------------------------------------------------------------------|
E|-2-2-2---------------4-4-4--------------7~--------------------7-9-4--------|

Verse – 00.47 – 01.16

G|---------------------------------------------------------------------------|
D|---------------------------------------------------------------------------|
A|---------------------------------------------------------------------------|
E|-2-2-2-2-2-2-2-2-1-1-1-1-1-1-1-1-7-7-7-7-7-7-7-7-7-7-7-7-7-7-9-4-----------| x4

G|--------------------------|
D|--------------------------|
A|--------------------------|
E|-4--2------------4--7-----|

Chorus – 01.16 – 01.39

G|---------------------------------------------------------------------------|
D|---------------------------------------------------------------------------|
A|---------------------------------------------------------------------------|
E|-2-2-2---------------4-4-4--------------7-7-6-7---------7-7-6-7---4~-------|

G|---------------------------------------------------------------------------|
D|---------------------------------------------------------------------------|
A|---------------------------------------------------------------------------|
E|-2-2-2---------------4-4-4--------------7~--------------------7-9-4--------|

G|---------------------------------------------------------------------------|
D|---------------------------------------------------------------------------|
A|---------------------------------------------------------------------------|
E|-2-2-2---------------4-4-4--------------7-7-7---------7-7-7---4-4-4--------|

G|---------------------------------------------------------------------------|
D|---------------------------------------------------------------------------|
A|---------------------------------------------------------------------------|
E|-2-2-2---------------4-4-4--------------7~------7----7--------7-9-4--------|

Breakdown – 01.39 – 02.01

G|---------------------------------------------------------------------------|
D|---------------------------------------------------------------------------|
A|---------------------------------------------------------------------------|
E|-4-4-4-4-4-4-4-4-2-2-2-2-2-2-2-2-4-4-4-4-4-4-4-4-2-2-2-2-2-2-2-2-----------| 

G|---------------------------------------------------------------------------|
D|---------------------------------------------------------------------------|
A|---------------------------------------------------------------------------|
E|-4-7-2---2-2-2-2-4-4-4-4-4-4-4-4-2-2-2-2-2-2-2-2-4-4-4-4-4-4---7-----------|

G|---------------------------------------------------------------------------|
D|---------------------------------------------------------------------------|
A|---------------------------------------------------------------------------|
E|-4-4-4-4-4-4-4-4-2-2-2-2-2-2-2-2-4-4-4-4-4-4-4-4-2-2-2-2-2-2-2-2-----------| 

G|---------------------------------------------------------------------------|
D|---------------------------------------------------------------------------|
A|---------------------------------------------------------------------------|
E|-4-7-2---2-2-2-2-4-4-4-4-4-4-4-4-2-2-2-2-2-2-2-2-4-4-4-4-4-4---7-----------|

Bridge – 02.01 – 02.33

G|---------------------------------------------------------------------------|
D|---------------------------------------------------------------------------|
A|---------------------------------------------------------------------------|
E|-2-2-2-2-2-2-2-2-4-4-4-4-4-4-4-4-7-7-7-7-7-7-7-7-7-7-7-7-7-7-7-7-----------| x3

G|---------------------------------------------------------------------------|
D|---------------------------------------------------------------------------|
A|---------------------------------------------------------------------------|
E|-2-2-2-2-2-2-2-2-4-4-4-4-4-4-4-4-7~----------------------------------------|

G|---------------------------------------------------------------------------|
D|---------------------------------------------------------------------------|
A|---------------------------------------------------------------------------|
E|-2-2-2-2-2-2-2-2-4-4-4-4-4-4-4-4-7-7-7-7-7-7-7-7-7-7-7-7-7-7-7-7-----------| x2

Chorus – 02.33 – End. 

G|---------------------------------------------------------------------------|
D|---------------------------------------------------------------------------|
A|---------------------------------------------------------------------------|
E|-2-2-2-2-2-2-2-2-4-4-4-4-4-4-4-4-7-7-7-7-7-7-7-7-7-7-7-7-7-7-7-7-----------| 

G|---------------------------------------------------------------------------|
D|---------------------------------------------------------------------------|
A|---------------------------------------------------------------------------|
E|-2-2-2-----------4-4-4-----------7-7-7---------7-7-7-----------------------|

G|---------------------------------------------------------------------------|
D|---------------------------------------------------------------------------|
A|---------------------------------------------------------------------------|
E|-2-2-2-2-2-2-2-2-4-4-4-4-4-4-4-4-7-7-7-7-7-7-7-7-7-7-7-7-7-7-7-7-----------| 


G|---------------------------------------------------------------------------|
D|---------------------------------------------------------------------------|
A|---------------------------------------------------------------------------|
E|-2-2-2-2-2-2-2-2-4-4-4-4-4-4-4-4-7----4----2~------------------------------| 




7. SUPPY

Intro Riff – 00.05 – 00.21

G|-----------------------------------------|
D|-----------------------------------------|
A|---------3-3-4-4-------------------------|
E|-4---4-----------2-2-2-2-2-2-2-2---------| x4

G|---------------------------------------------------------------------------|
D|---------------------------------------------------------------------------|
A|--------------------------------------------------------------------------|
E|-4~---------------------------------------------------------2-2---4--------|

Verse – 00.21 – 00.39

G|---------------------------------------------------------------------------|
D|---------------------------------------------------------------------------|
A|------------------------------------------4~-------------------------------|
E|-4~------------------------------4~--------------4~-----------4-2-3--------|

G|---------------------------------------------------------------------------|
D|---------------------------------------------------------------------------|
A|------------------------------------------4~-------------------------------|
E|-4~------------------------------4~--------------4-4-4-4-4-4--4-2-3--------|

Intro Riff – 00.39 – 00.44

G|-----------------------------------------|
D|-----------------------------------------|
A|---------3-3-4-4-------------------------|
E|-4---4-----------2-2-2-2-2-2-2-2---------| x4

Verse – 00.44 – 01.07

G|---------------------------------------------------------------------------|
D|---------------------------------------------------------------------------|
A|---------------------------------------------------------------------------|
E|-4-4-4-4-4-4-4-4-4-4-4-4-4-4-4-4-4-4-4-4-4-4-4-4-4-4-4-4-4-4-4-4-----------|

G|---------------------------------------------------------------------------|
D|---------------------------------------------------------------------------|
A|-3-3-3-3-3-3-3-3-4-4-4-4-4-4-4-4-------------------------------------------|
E|---------------------------------4-4-4-4-4-4-4-4-4-4-4-4-4-4-2-3-----------|

G|---------------------------------------------------------------------------|
D|---------------------------------------------------------------------------|
A|---------------------------------------------------------------------------|
E|-4-4-4-4-4-4-4-4-4-4-4-4-4-4-4-4-4-4-4-4-4-4-4-4-4-4-4-4-4-4-4-4-----------|

G|---------------------------------------------------------------------------|
D|---------------------------------------------------------------------------|
A|-3-3-3-3-3-3-3-3-4-4-4-4-4-4-4-4-------------------------------------------|
E|---------------------------------4-4-4-4-4-4-4-4-4-4-4-4-4-4-4-4x----------|

Chorus – 01.07 – 01.35 

G|---------------------------------------------------------------------------|
D|---------------------------------------------------------------------------|
A|---------3-3-4-4-------------------------3-3-4-4---------------------------|
E|-4---4-----------2-2-2-2-2-2-2-2-4---4-----------2-2-2-2-2-2-2-2-----------| 

G|---------------------------------------------------------------------------|
D|---------------------------------------------------------------------------|
A|---------3-3-4-4-----------------------------------------------------------|
E|-4---4-----------2-2-2-2-2-2-2-2-4---4---4-4---4-2---2---2-2---2-----------| 

G|---------------------------------------------------------------------------|
D|---------------------------------------------------------------------------|
A|---------3-3-4-4-------------------------3-3-4-4---------------------------|
E|-4---4-----------2-2-2-2-2-2-2-2-4---4-----------2-2-2-2-2-2-2-2-----------| 

G|---------------------------------------------------------------------------|
D|---------------------------------------------------------------------------|
A|---------3-3-4-4-----------------------------------------------------------|
E|-4---4-----------2-2-2-2-2-2-2-2-4---4---4-4---4-2---2---2-2---2-----------| 

G|---------------------------------------------------------------------------|
D|---------------------------------------------------------------------------|
A|---------------------------------------------------------------------------|
E|-4-4-4-4-4-4-4-4-2-2-2-2-2-2-2-2-4-4-4-4-4-4-4-4-2-2-2-2-2-2-2-2-----------|

G|---------------------------------------------------------------------------|
D|---------------------------------------------------------------------------|
A|---------------------------------------------------------------------------|
E|-4-4-4-4-4-4-4-4-2-2-2-2-2-2-2-2-------------------------------------------|

Bridge – 01.54 – 02.09

G|---------------------------------------------------------------------------|
D|---------------------------------------------------------------------------|
A|---------------------------------------------------------------------------|
E|-4~------------------------------------------------------------------------|

G|---------------------------------------------------------------------------|
D|---------------------------------------------------------------------------|
A|---------------------------------------------------------------------------|
E|-4-4-4-4-4-4-4-4-4-4-4-4-4-4-4-4-4-4-4-4-4-4-4-4-4-4-4-4-4-4-4-4-----------|

Chorus – 02.09 – End. 

G|---------------------------------------------------------------------------|
D|---------------------------------------------------------------------------|
A|---------3-3-4-4-------------------------3-3-4-4---------------------------|
E|-4---4-----------2-2-2-2-2-2-2-2-4---4-----------2-2-2-2-2-2-2-2-----------| 

G|---------------------------------------------------------------------------|
D|---------------------------------------------------------------------------|
A|---------3-3-4-4-----------------------------------------------------------|
E|-4---4-----------2-2-2-2-2-2-2-2-4---4---4-4---4-2---2---2-2---2-----------| 

G|---------------------------------------------------------------------------|
D|---------------------------------------------------------------------------|
A|---------------------------------------------------------------------------|
E|-4-4-4-4-4-4-4-4-2-2-2-2-2-2-2-2-4-4-4-4-4-4-4-4-2-2-2-2-2-2-2-2-----------| 
G|---------------------------------------------------------------------------|
D|---------------------------------------------------------------------------|
A|---------------------------------------------------------------------------|
E|-4-4-4-4-4-4-4-4-2-2-2-2-2-2-2-2-4-4-4-4-4-4-4-4-2-2-2-2-2-2-2-2-----------| 

G|---------------------------------------------------------------------------|
D|---------------------------------------------------------------------------|
A|---------3-3-4-4-------------------------3-3-4-4---------------------------|
E|-4---4-----------2-2-2-2-2-2-2-2-4---4-----------2-2-2-2-2-2-2-2-----------| 

G|---------------------------------------------------------------------------|
D|---------------------------------------------------------------------------|
A|---------3-3-4-4-----------------------------------------------------------|
E|-4---4-----------2-2-2-2-2-2-2-2-4---4---4-4---4-2---2---2-2---2-----------| 

G|---------------------------------------------------------------------------|
D|---------------------------------------------------------------------------|
A|---------------------------------------------------------------------------|
E|-4-4-4-4-4-4-4-4-2-2-2-2-2-2-2-2-4-4-4-4-4-4-4-4-2-2-2-2-2-2-2-2-----------| 

G|---------------------------------------------------------------------------|
D|---------------------------------------------------------------------------|
A|---------------------------------------------------------------------------|
E|-4-4-4-4-4-4-4-4-2-2-2-2-2-2-2-2-------------------------------------------|



8. HOW TO HIDE YOUR FEELINGS

Verse – 00.18 – 00.57

G|---------------------------------------------------------------------------|
D|---------------------------------------------------------------------------|
A|---------------------------------------------------------------------------|
E|-4-4-4-4-4-4-3-3-1-1-1-1-1-1-3-3-4-4-4-4-4-4-3-3-1-1-1-1-1-1-3-3-----------|

G|---------------------------------------------------------------------------|
D|---------------------------------------------------------------------------|
A|---------------------------------------------------------------------------|
E|-4-4-4-4-4-4-3-3-1-1-1-1-----0---4-4-4-4-4-4-3-3-1-1-1-1-1-1-3-3-----------|

G|---------------------------------------------------------------------------|
D|---------------------------------------------------------------------------|
A|---------------------------------------------------------------------------|
E|-4-4-4-4-4-4-3-3-1-1-1-1-1-1-3-3-4-4-4-4-4-4-3-3-1-1-1-1-1-1-3-3-----------|

G|---------------------------------------------------------------------------|
D|---------------------------------------------------------------------------|
A|---------------------------------------------------------------------------|
E|-4-4-4-4-4-4-3-3-1-1-1-1-----0---4-4-4-4-4-4-3-3-1-1-1-1-1-1-3-3-----------|

Pre-chorus – 00.57 – 01.16

G|---------------------------------------------------------------------------|
D|---------------------------------------------------------------------------|
A|---------------------------------------------------------------------------|
E|-9-9-9-9-0-0-0-0-1-1-1-1-0-0-0-0-9-9-9-9-0-0-0-0-1-1-1-1-0-0-0-0-----------|

G|---------------------------------------------------------------------------|
D|---------------------------------------------------------------------------|
A|---------------------------------------------------------------------------|
E|-9-9-9-9-0-0-0-0-1-1-1-1-0-0-0-0-9-9-9-9-9-9-9-9-0-0-0-0-0-0-0-0-----------|

Chorus – 01.16 – 01.35

G|---------------------------------------------------------------------------|
D|---------------------------------------------------------------------------|
A|-----------------4-4---4-4-4---------------------4-4---4-4-4---------------|
E|-4-4-----0-0---------------------4-4-----0-0-------------------------------|

G|---------------------------------------------------------------------------|
D|---------------------------------------------------------------------------|
A|------------------------------4------------------4-4-4-4-4-4-4-4-----------|
E|-4-4-4-4-4-4--0--1-1-1-1-1-1-----4-4-4-4-0-0-0-0---------------------------|

Verse – 01.35 – 01.54

G|---------------------------------------------------------------------------|
D|---------------------------------------------------------------------------|
A|---------------------------------------------------------------------------|
E|-4-4-4-4-4-4-3-3-1-1-1-1-1-1-3-3-4-4-4-4-4-4-3-3-1-1-1-1-1-1-3-3-----------|

G|---------------------------------------------------------------------------|
D|---------------------------------------------------------------------------|
A|---------------------------------------------------------------------------|
E|-4-4-4-4-4-4-3-3-1-1-1-1-----0---4-4-4-4-4-4-3-3-1-1-1-1-1-1-3-3-----------|

Pre-chorus – 01.54 – 02.14

G|---------------------------------------------------------------------------|
D|---------------------------------------------------------------------------|
A|---------------------------------------------------------------------------|
E|-9-------0-------1-------0-0-0-0-9-------0-------1-------0-0-0-0-----------|

G|---------------------------------------------------------------------------|
D|---------------------------------------------------------------------------|
A|---------------------------------------------------------------------------|
E|-9-9-9-9-0-0-0-0-1-1-1-1-0-0-0-0-9-9-9-9-9-9-9-9-0-0-0-0-0-0-0-0-----------|

Chorus – 02.14 – 02.33

G|---------------------------------------------------------------------------|
D|---------------------------------------------------------------------------|
A|---------------4-4-4---4-4-4-------------------4-4-4---4-4-4---------------|
E|-4-4-----0-0---------------------4-4-----0-0-------------------------------|

G|---------------------------------------------------------------------------|
D|---------------------------------------------------------------------------|
A|-------------------------4-4-4-4-----------------4-4-4-4-4-4-4-4-----------|
E|-4-4-4-4-0-0-0-0-1-1-1-1---------4-4-4-4-0-0-0-0---------------------------|

Bridge – 02.33 – 03.01

G|---------------------------------------------------------------------------|
D|---------------------------------------------------------------------------|
A|-------4-------------------------------4-----------------------------------|
E|-1-1-----7-7-7-7-7-7-7-7-9-9-9-9-1-1-----7-7-7-7-7-7-7-7-0-0-0-0-----------|

G|---------------------------------------------------------------------------|
D|---------------------------------------------------------------------------|
A|-------4-------------------------------4---2-2-----------------------------|
E|-1-1-----7-7-7-7-7-7-7-7-9-9-9-9-1-1-----1-----------7-7-0-0-0-0-----------|

Chorus (Rest for first part) – 03.01 – End. 

G|---------------------------------------------------------------------------|
D|---------------------------------------------------------------------------|
A|------------------------------4------------------4-4-4-4-4-4-4-4-----------|
E|-4-4-4-4-4-4--0--1-1-1-1-1-1-----4-4-4-4-0-0-0-0---------------------------|

G|---------------------------------------------------------------------------|
D|---------------------------------------------------------------------------|
A|-----------------4-4-4-4-4-4-4-4-----------------4-4-4-4-4-4-4-4-----------|
E|-4-4-4-4-0-0-0-0-----------------4-4-4-4-0-0-0-0---------------------------| x3

G|---------------------------------------------------------------------------|
D|---------------------------------------------------------------------------|
A|-----------------4-4-4-4-4-4-4-4-----------------4~------------------------|
E|-4-4-4-4-0-0-0-0-----------------4-4-4-4-0-0-0-0---------------------------|




9. SWAN DIVE

Intro – 00.00 – 00.04

G|------------------------|
D|------------------------|
A|------------------------|
E|-7-7-7-7-7-7-7-7--------|

Verse – 00.04 – 00.27

G|---------------------------------------------------------------------------|
D|---------------------------------------------------------------------------|
A|-2-2-2-2-2-2-2-2-2-2-2-2-2-2-2-2-------------------------------------------|
E|---------------------------------4-4-4-4-4-4-4-4-4-4-4-4-4-4-4-4-----------|

G|---------------------------------------------------------------------------|
D|---------------------------------------------------------------------------|
A|-4-4-4-4-4-4-4-4-4-4-4-4-4-4-4-4-------------------------------------------|
E|---------------------------------2-2-2-2-2-2-2-2-2-2-2-2-2-2-2-2-----------|

G|---------------------------------------------------------------------------|
D|---------------------------------------------------------------------------|
A|-2-2-2-2-2-2-2-2-2-2-2-2-2-2-2-2-------------------------------------------|
E|---------------------------------4-4-4-4-4-4-4-4-4-4-4-4-4-4-4-4-----------|

G|---------------------------------------------------------------------------|
D|---------------------------------------------------------------------------|
A|-4-4-4-4-4-4-4-4-4-4-4-4-4-4-4-4-------------------------------------------|
E|---------------------------------2-2-2-2-2-2-2-2-2-2-2-2-2-2-2-2-----------|

Pre-Chorus – 00.27 – 00.38

G|---------------------------------------------------------------------------|
D|---------------------------------------------------------------------------|
A|-----------------2-2-2---2-2-2-------------------4-4-4----4----------------|
E|-2-2-2---2-2-2------------------4-4-4---4-4-4---------------4-4------------|

G|---------------------------------------------------------------------------|
D|---------------------------------------------------------------------------|
A|-----------------2-2-2---2-2-2---------------------------------------------|
E|-2-2-2---2-2-2-----------------4~------------------------------------------|

Chorus – 00.38 – 01.01

G|---------------------------------------------------------------------------|
D|---------------------------------------------------------------------------|
A|-2~------2----------------------2~-------2---------------------------------|
E|-----------1~----1-0~----------------------1~-----1-0~--4-4-4-4-4----------|

G|---------------------------------------------------------------------------|
D|---------------------------------------------------------------------------|
A|-2-2-2-2-2-2-2-2-----------------------------------------------------------|
E|-----------------2-2-2-2-2-2-2-2-0-0-0-0-0-0-0-0-4-4-4-4-4-4-4-4-4---------|

G|---------------------------------------------------------------------------|
D|---------------------------------------------------------------------------|
A|-2-2-2-2-2-2-2-2-----------------------------------------------------------|
E|-----------------2-2-2-2-2-2-2-2-4-4-4-4-4-4-4-4-4-4-4-4-4-4-4-4-4---------|

Verse – 01.01 – 01.24

G|---------------------------------------------------------------------------|
D|---------------------------------------------------------------------------|
A|-2-2-2-2-2-2-2-2-2-2-2-2-2-2-2-2-------------------------------------------|
E|---------------------------------4-4-4-4-4-4-4-4-4-4-4-4-4-4-4-4-----------|

G|---------------------------------------------------------------------------|
D|---------------------------------------------------------------------------|
A|-4-4-4-4-4-4-4-4-4-4-4-4-4-4-4-4-------------------------------------------|
E|---------------------------------2-2-2-2-2-2-2-2-2-2-2-2-2-2-2-2-----------|

G|---------------------------------------------------------------------------|
D|---------------------------------------------------------------------------|
A|-2-2-2-2-2-2-2-2-2-2-2-2-2-2-2-2-------------------------------------------|
E|---------------------------------4-4-4-4-4-4-4-4-4-4-4-4-4-4-4-4-----------|

G|---------------------------------------------------------------------------|
D|---------------------------------------------------------------------------|
A|-4-4-4-4-4-4-4-4-4-4-4-4-4-4-4-4-------------------------------------------|
E|---------------------------------2-2-2-2-2-2-2-2-2-2-2-2-2-2-2-2-----------|

Pre-Chorus – 01.24 – 01.35

G|---------------------------------------------------------------------------|
D|---------------------------------------------------------------------------|
A|-----------------2-2-2---2-2-2-------------------4-4-4----4----------------|
E|-2-2-2---2-2-2------------------4-4-4---4-4-4---------------4-4------------|

G|---------------------------------------------------------------------------|
D|---------------------------------------------------------------------------|
A|-----------------2-2-2---2-2-2--------------4~-----------------------------|
E|-2-2-2---2-2-2-----------------4~-------------------0~---------------------|

Chorus – 01.35 – 01.58

G|---------------------------------------------------------------------------|
D|---------------------------------------------------------------------------|
A|-2~------2----------------------2~-------2---------------------------------|
E|-----------1~----1-0~----------------------1~-----1-0~--4-4-4-4-4----------|

G|---------------------------------------------------------------------------|
D|---------------------------------------------------------------------------|
A|-2-2-2-2-2-2-2-2-----------------------------------------------------------|
E|-----------------2-2-2-2-2-2-2-2-0-0-0-0-0-0-0-0-4-4-4-4-4-4-4-4-4---------|

G|---------------------------------------------------------------------------|
D|---------------------------------------------------------------------------|
A|-2-2-2-2-2-2-2-2-----------------------------------------------------------|
E|-----------------2-2-2-2-2-2-2-2-4-4-4-4-4-4-4-4-4-4-4-4-4-4-4-4-4---------|

Bridge – 01.58 – 02.15

G|------------------------------------------------------|
D|------------------------------------------------------|
A|-2-2-2-------4-4-4---------2-2-2-------4-4-4----------|
E|-------2-2-2-------4-4-4-4-------2-2-2-------4-4-4-4--| x2

Chorus – 02.15 – 02.49

G|---------------------------------------------------------------------------|
D|---------------------------------------------------------------------------|
A|---------------------------------------------------------------------------|
E|--------------------------------------------------------4-4-4-4-4-4--------|

G|---------------------------------------------------------------------------|
D|---------------------------------------------------------------------------|
A|-2-2-2-2-2-2-2-2-----------------------------------------------------------|
E|-----------------2-2-2-2-2-2-2-2-0-0-0-0-0-0-0-0-4-4-4-4-4-4-4-4-4---------|

G|---------------------------------------------------------------------------|
D|---------------------------------------------------------------------------|
A|-2-2-2-2-2-2-2-2-----------------------------------------------------------|
E|-----------------2-2-2-2-2-2-2-2-4-4-4-4-4-4-4-4-4-4-4-4-4-4-4-4-4---------|

G|---------------------------------------------------------------------------|
D|---------------------------------------------------------------------------|
A|-2-2-2-2-2-2-2-2-----------------------------------------------------------|
E|-----------------2-2-2-2-2-2-2-2-0-0-0-0-0-0-0-0-4-4-4-4-4-4-4-4-4---------|

G|---------------------------------------------------------------------------|
D|---------------------------------------------------------------------------|
A|-2-2-2-2-2-2-2-2-----------------------------------------------------------|
E|-----------------2-2-2-2-2-2-2-2-4-4-4-4-4-4-4-4-4-4-4-4-4-4-4-4-4---------|

Outro – 02.49 – End. 

G|------------------------------------------------------|
D|------------------------------------------------------|
A|-2-2-2-------4-4-4---------2-2-2-------4-4-4----------|
E|-------2-2-2-------4-4-4-4-------2-2-2-------4-4-4-4--| x2





10. HOODIE SONG

Verse – 00.20 – 00.44

G|---------------------------------------------------------------------------|
D|---------------------------------------------------------------------------|
A|-4-4-4-4--------------------------------------0-0-0-0-----2-2-2-2----------|
E|-----------------0-0-0-0---------4-4-4-4-----------------------------------| x2

G|--------------------------------------------|
D|--------------------------------------------|
A|-0-0-0-0-0-0-0-0-----------------2-2--4-4---|
E|-----------------4-4-4-4-4-4-4-4------------|

Chorus – 00.44 – 01.07

G|---------------------------------------------------------------------------|
D|---------------------------------------------------------------------------|
A|-4-4-4-4-4-4-4-4-----------------0-0-0-0-0-0-0-0-0-0-0-0-0-0-0-0-----------|
E|-----------------0-0-0-0-0-0-0-0-------------------------------------------|

G|---------------------------------------------------------------------------|
D|---------------------------------------------------------------------------|
A|-2-2-2-2-2-2-2-2-4-4-4-4-4-4-4-4-0-0-0-0-0-0-0-0-0-0-0-0-0-0-0-0-----------|
E|---------------------------------------------------------------------------|

G|---------------------------------------------------------------------------|
D|---------------------------------------------------------------------------|
A|-0-0-0-0-0-0-0-0-----------------------------------------------------------|
E|-----------------0-0-0-0-0-0-0-0-4~--------------------------4-4-----------| x2

G|---------------------------------------------------------------------------|
D|---------------------------------------------------------------------------|
A|-0-0-0-0-0-0-0-0-----------------------------------------------------------|
E|-----------------0-0-0-0-0-0-0-0-7-7-7-7-7-7-7-7-7-7-7-7-7-7-7-7-----------|

Post-Chorus – 01.07 – 01.16

G|---------------------------------------------------------------------------|
D|---------------------------------------------------------------------------|
A|-4-4-4-4--------------------------------------0-0-0-0-----2-2-2-2----------|
E|-----------------0-0-0-0---------4-4-4-4-----------------------------------|

Verse – 01.16 – 01.40

G|---------------------------------------------------------------------------|
D|---------------------------------------------------------------------------|
A|-4-4-4-4--------------------------------------0-0-0-0-----2-2-2-2----------|
E|-----------------0-0-0-0---------4-4-4-4-----------------------------------| x3

G|--------------------------------------------|
D|--------------------------------------------|
A|-0-0-0-0-0-0-0-0-----------------2-2--4-4---|
E|-----------------4-4-4-4-4-4-4-4------------|

Chorus – 01.40 – 02.03

G|---------------------------------------------------------------------------|
D|---------------------------------------------------------------------------|
A|-4-4-4-4-4-4-4-4-----------------0-0-0-0-0-0-0-0-0-0-0-0-0-0-0-0-----------|
E|-----------------0-0-0-0-0-0-0-0-------------------------------------------|

G|---------------------------------------------------------------------------|
D|---------------------------------------------------------------------------|
A|-2-2-2-2-2-2-2-2-4-4-4-4-4-4-4-4-0-0-0-0-0-0-0-0~--------------------------|
E|---------------------------------------------------------------------------|

G|---------------------------------------------------------------------------|
D|---------------------------------------------------------------------------|
A|-0-0-0-0-0-0-0-0-----------------------------------------------------------|
E|-----------------0-0-0-0-0-0-0-0-4~----4---4---4----4----4---4-4-----------| x2

G|---------------------------------------------------------------------------|
D|---------------------------------------------------------------------------|
A|-0-0-0-0-0-0-0-0-----------------------------------------------------------|
E|-----------------0-0-0-0-0-0-0-0-7-7-7-7-7-7-7-7-7-7-7-7-7-7-7-7-----------|

Bridge – 02.03 – 02.20

G|---------------------------------------------------------------------------|
D|---------------------------------------------------------------------------|
A|-0-0-0-0-0-0-0-0-2-2-2-2-2-2-2-2-4-4-4-4-4-4-4-4-4-4-4-4-4-4-4-4-----------|
E|---------------------------------------------------------------------------| x4

Chorus – 02.20 – End. 

G|---------------------------------------------------------------------------|
D|---------------------------------------------------------------------------|
A|-4-4-4-4-4-4-4-4-----------------0-0-0-0-0-0-0-0-0-0-0-0-0-0-0-0-----------|
E|-----------------0-0-0-0-0-0-0-0-------------------------------------------|

G|---------------------------------------------------------------------------|
D|---------------------------------------------------------------------------|
A|-2-2-2-2-2-2-2-2-4-4-4-4-4-4-4-4-0-0-0-0-0-0-0-0~--------------------------|
E|---------------------------------------------------------------------------|

G|---------------------------------------------------------------------------|
D|---------------------------------------------------------------------------|
A|-0-0-0-0-0-0-0-0-----------------------------------------------------------|
E|-----------------0-0-0-0-0-0-0-0-4-4-4-4-4-4-4-4-4-4-4-4-4-4-4-4-----------| x2

G|---------------------------------------------------------------------------|
D|---------------------------------------------------------------------------|
A|-0-0-0-0-0-0-0-0-----------------------------------------------------------|
E|-----------------0-0-0-0-0-0-0-0-7-7-7-7-7-7-7-7-7-7-7-7-7-7-7-7-----------| 

G|---------------------------------------------------------------------------|
D|---------------------------------------------------------------------------|
A|-0-0-0-0-0-0-0-0-----------------------------------------------------------|
E|-----------------0-0-0-0-0-0-0-0-7---7---7-7-7-----------------7-----------| 



11. RE-RUN

Instrumental – 00.26 – 00.38

G|----------------------------------------------------|
D|----------------------------------------------------|
A|-------------2-2-2-------------------2-2-2----------|
E|-3-3-3-0-0-0-------1-1-1-3-3-3-0-0-0-------1-1-1----| x3

Pre-chorus – 00.38 – 01.04

G|---------------------------------------------------------------------------|
D|---------------------------------------------------------------------------|
A|---------------------------------------------------------------------------|
E|-0-0-0-0-0-0-0-0-0-0-0-0-0-0-0-0-3-3-3-3-3-3-3-3-3-3-3-3-3-3-3-3-----------| x2

G|---------------------------------------------------------------------------|
D|---------------------------------------------------------------------------|
A|-------------------------------------------------------------2-------------|
E|-0-0-0-0-0-0-0-0-0-0-0-0-0-0-0-0-1-1-1-1-1-1-1-1-3-3-3-3-3-3---1-----------|

G|---------------------------------------------------------------------------|
D|---------------------------------------------------------------------------|
A|---------------------------------------------------------------------------|
E|-0-0-0-0-0-0-0-0-0-0-0-0-0-0-0-0-1-1-1-1-1-1-1-1-1-1---1-1-----1-----------|

Chorus – 01.04 – 01.20 

G|---------------------------------------------------------------------------|
D|---------------------------------------------------------------------------|
A|---------------------------------------------------------------------------|
E|-7-7-7-7-7-7-7-7-7-7-7-7-7-7-7-7-0-0-0-0-0-0-0-0-0-0-0-0-0-0-0-0-----------|

G|---------------------------------------------------------------------------|
D|---------------------------------------------------------------------------|
A|---------------------------------------------------------------------------|
E|-8-8-8-8-8-8-8-8-8-8-8-8-8-8-8-8-0-0-0-0-0-0-0-0-1-1-1-1-1-1-1-1-----------|

Verse – 01.20 – 01.33

G|---------------------------------------------------------------------------|
D|---------------------------------------------------------------------------|
A|-2-2-2-2-2-2-2-2-----------------2-2-2-2-2-2-2-2---------------------------|
E|-----------------1-1-1-1-3-3-3-3-----------------1-1-1-1-0-0-0-0-----------|

G|---------------------------------------------------------------------------|
D|---------------------------------------------------------------------------|
A|-2-2-2-2-2-2-2-2-----------------------------------------------2-----------|
E|-----------------1-1-1-1-3-3-3-3-0-0-0-0-0-0-0-0-1---1------1--------------|

Pre-chorus – 01.33 – 01.59

G|---------------------------------------------------------------------------|
D|---------------------------------------------------------------------------|
A|---------------------------------------------------------------------------|
E|-0-0-0-0-0-0-0-0-0-0-0-0-0-0-0-0-3-3-3-3-3-3-3-3-3-3-3-3-3-3-3-3-----------| x2

G|---------------------------------------------------------------------------|
D|---------------------------------------------------------------------------|
A|-------------------------------------------------------------2-------------|
E|-0-0-0-0-0-0-0-0-0-0-0-0-0-0-0-0-1-1-1-1-1-1-1-1-3-3-3-3-3-3---1-----------|

G|---------------------------------------------------------------------------|
D|---------------------------------------------------------------------------|
A|---------------------------------------------------------------------------|
E|-0-0-0-0-0-0-0-0-0-0-0-0-0-0-0-0-1-1-1-1-1-1-1-1-1-1---1-1-----------------|

Chorus – 01.59 – 02.24

G|---------------------------------------------------------------------------|
D|---------------------------------------------------------------------------|
A|---------------------------------------------------------------------------|
E|-7-7-7-7-7-7-7-7-7-7-7-7-7-7-7-7-0-0-0-0-0-0-0-0-0-0-0-0-0-0-0-0-----------|

G|---------------------------------------------------------------------------|
D|---------------------------------------------------------------------------|
A|---------------------------------------------------------------------------|
E|-8-8-8-8-8-8-8-8-8-8-8-8-8-8-8-8-0-0-0-0-0-0-0-0-1-1-1-1-1-1-1-1-----------|

G|---------------------------------------------------------------------------|
D|---------------------------------------------------------------------------|
A|---------------------------------------------------------------------------|
E|-7-7-7-7-7-7-7-7-7-7-7-7-7-7-7-7-0-0-0-0-0-0-0-0-0-0-0-0-0-0-0-0-----------|

G|---------------------------------------------------------------------------|
D|---------------------------------------------------------------------------|
A|---------------------------------------------------------------------------|
E|-8-8-8-8-8-8-8-8-8-8-8-8-8-8-8-8-0-0-0-0-0-0-0-0-1-1-1-1-1-1-1-1-----------|

Bridge – 02.24 – 03.16

G|----------------------------------------------------|
D|----------------------------------------------------|
A|-------------2-2-2-------------------2-2-2----------|
E|-3-3-3-0-0-0-------1-1-1-3-3-3-0-0-0-------1-1-1----| x2

G|---------------------------------------------------------------------------|
D|---------------------------------------------------------------------------|
A|---------------------------------------------------------------------------|
E|-0-0-0-0-0-0-0-0-0-0-0-0-0-0-0-0-3-3-3-3-3-3-3-3-3-3-3-3-3-3-3-3-----------|

G|---------------------------------------------------------------------------|
D|---------------------------------------------------------------------------|
A|---------------------------------------------------------------------------|
E|-0-0-0-0-0-0-0-0-0-0-0-0-0-0-0-0-1-1-1-1-1-1-1-1-1-1-1-1-1-1-1-7-----------|

(Rest for piano and drum solo)

G|---------------------------------------------------------------------------|
D|---------------------------------------------------------------------------|
A|---------------------------------------------------------------------------|
E|-7-7-7-7-7-7-7-7-7-7-7-7-7-7-7-7-0-0-0-0-0-0-0-0-0-0-0-0-0-0-0-0-----------|

G|---------------------------------------------------------------------------|
D|---------------------------------------------------------------------------|
A|---------------------------------------------------------------------------|
E|-8-8-8-8-8-8-8-8-8-8-8-8-8-8-8-8-0-0-0-0-0-0-0-0-1-1-1-1-1-1-1-1-----------|

Chorus – 03.16 – End. 

G|---------------------------------------------------------------------------|
D|---------------------------------------------------------------------------|
A|---------------------------------------------------------------------------|
E|-7-7-7-7-7-7-7-7-7-7-7-7-7-7-7-7-0-0-0-0-0-0-0-0-0-0-0-0-0-0-0-0-----------|

G|---------------------------------------------------------------------------|
D|---------------------------------------------------------------------------|
A|---------------------------------------------------------------------------|
E|-8-8-8-8-8-8-8-8-8-8-8-8-8-8-8-8-3-3-3-3-3-3-3-3-0-0-0-0-0-0-0-7~----------|



12. OPEN SEASON

Instrumental – 00.12 – 00.24

G|---------------------------------------------------------------------------|
D|---------------------------------------------------------------------------|
A|---------------------------------------------------------------------------|
E|-4-4-4-4-4-4-4-4-4-4-4-4-4-4-4-4-7-7-7-7-7-7-7-7-7-7-7-7-7-7-7-7-----------|

G|---------------------------------------------------------------------------|
D|---------------------------------------------------------------------------|
A|---------------------------------------------------------------------------|
E|-4-4-4-4-4-4-4-4-4-4-4-4-4-4-4-4-7-7-7-7-7-7-7-7-8-8-8-8-8-8-8-8-----------|

Verse – 00.24 – 00.47

G|---------------------------------------------------------------------------|
D|---------------------------------------------------------------------------|
A|---------------------------------------------------------------------------|
E|-4-4-4-4-4-4-4-4-4-4-4-4-4-4-4-4-0-0-0-0-0-0-0-0-7-7-7-7-7-7-7-7-----------|

G|---------------------------------------------------------------------------|
D|---------------------------------------------------------------------------|
A|---------------------------------------------------------------------------|
E|-4-4-4-4-4-4-4-4-4-4-4-4-4-4-4-4-7-7-7-7-7-7-7-7-8-8-8-8-8-8-8-8-----------|

G|---------------------------------------------------------------------------|
D|---------------------------------------------------------------------------|
A|---------------------------------------------------------------------------|
E|-4-4-4-4-4-4-4-4-4-4-4-4-4-4-4-4-1-1-1-1-1-1-1-1-1-1-1-1-1-1-3-3-----------|

G|---------------------------------------------------------------------------|
D|---------------------------------------------------------------------------|
A|---------------------------------------------------------------------------|
E|-4-4-4-4-4-4-4-4-4-4-4-4-4-4-4-4-7-7-7-7-7-7-7-7-7-7-7-7-7-7-7-7-----------|

Chorus – 00.47 – 01.11

G|---------------------------------------------------------------------------|
D|---------------------------------------------------------------------------|
A|-3-3-3-------3-3------------------2-2-2-------2-2--2-2-2-----2-2-----------|
E|-----------------4-4-4--------4-4------------------------------------------| x2

G|---------------------------------------------------------------------------|
D|---------------------------------------------------------------------------|
A|-3-3-3-3-3-3-3-3-----------------------------------------------------------|
E|-----------------4-4-4-4-4-4-4-4-7-7-7-7-7-7-7-7-7-7-7-7-7-7-7-7-----------| x2

Verse – 01.11 – 01.46

G|---------------------------------------------------------------------------|
D|---------------------------------------------------------------------------|
A|---------------------------------------------------------------------------|
E|-4-4-4-4-4-4-4-4-4-4-4-4-4-4-4-4-0-0-0-0-0-0-0-0-8-8-8-8-8-8-8-8-----------| x2

G|---------------------------------------------------------------------------|
D|---------------------------------------------------------------------------|
A|---------------------------------------------------------------------------|
E|-4-4-4-4-4-4-4-4-4-4-4-4-4-4-4-4-0-0-0-0-0-0-0-0-7-7-7-7-7-7-7-7-----------|

G|---------------------------------------------------------------------------|
D|---------------------------------------------------------------------------|
A|---------------------------------------------------------------------------|
E|-4-4-4-4-4-4-4-4-4-4-4-4-4-4-4-4-7-7-7-7-7-7-7-7-8-8-8-8-8-8-8-8-----------|

G|---------------------------------------------------------------------------|
D|---------------------------------------------------------------------------|
A|---------------------------------------------------------------------------|
E|-4-4-4-4-4-4-4-4-4-4-4-4-4-4-4-4-1-1-1-1-1-1-1-1-1-1-1-1-1-1-3-3-----------|

G|---------------------------------------------------------------------------|
D|---------------------------------------------------------------------------|
A|---------------------------------------------------------------------------|
E|-4-4-4-4-4-4-4-4-4-4-4-4-4-4-4-4-7-7-7-7-7-7-7-7-7-7-7-7-7-7x--------------|

Chorus – 01.46 – 02.09

G|---------------------------------------------------------------------------|
D|---------------------------------------------------------------------------|
A|-3-3-3-------3-3------------------2-2-2-------2-2--2-2-2-----2-2-----------|
E|-----------------4-4-4--------4-4------------------------------------------| x2

G|---------------------------------------------------------------------------|
D|---------------------------------------------------------------------------|
A|-3-3-3-3-3-3-3-3-----------------------------------------------------------|
E|-----------------4-4-4-4-4-4-4-4-7-7-7-7-7-7-7-7-7-7-7-7-7-7-7-7-----------| x2

Bridge – 02.09 – 02.33

G|---------------------------------------------------------------------------|
D|---------------------------------------------------------------------------|
A|---------------------------------------------------------------------------|
E|-4~------------------------------1~-----------------3~---------------------|

G|---------------------------------------------------------------------------|
D|---------------------------------------------------------------------------|
A|---------------------------------------------------------------------------|
E|-4~------------------------------8~----------------------------------------|

G|---------------------------------------------------------------------------|
D|---------------------------------------------------------------------------|
A|---------------------------------------------------------------------------|
E|-4-4-4-4-4-4-4-4-4-4-4-4-4-4-4-4-7-7-7-7-7-7-7-7-7-7-7-7-7-7-7-7-----------| x2

Chorus – 02.33 – End. 

G|---------------------------------------------------------------------------|
D|---------------------------------------------------------------------------|
A|---------------------------------------------------------------------------|
E|---------------------------------7-7-7-7-7-7-7-7-7-7-7-7-7-7-7-7-----------|

G|---------------------------------------------------------------------------|
D|---------------------------------------------------------------------------|
A|-3-3-3-3-3---3-3------------------2-2-2-2-2-2-2-2-2-2-2-2-2-2-2-2----------|
E|-----------------4-4-4-4-4----4-4------------------------------------------|

G|---------------------------------------------------------------------------|
D|---------------------------------------------------------------------------|
A|-3-3-3-3-3-3-3-3-----------------------------------------------------------|
E|-----------------4-4-4-4-4-4-4-4-7-7-7-7-7-7-7-7-7-7-7-7-7-7-7-7-----------| x2

G|---------------------------------------------------------------------------|
D|---------------------------------------------------------------------------|
A|---------------------------------------------------------------------------|
E|-8---8------------4------------0~------------------------------------------|





13. DAMAGE CONTROL 

Intro – 00.14 – 00.28

G|---------------------------------------------------------------------------|
D|---------------------------------------------------------------------------|
A|-------------------------------------------------4-4-4-4-4-4-4-4-----------|
E|-1-1-1-1-1-1-1-1-0-0-0-0-0-0-0-0-4-4-4-4-4-4-4-4---------------------------| x2


Verse – 00.28 – 00.56

G|---------------------------------------------------------------------------|
D|---------------------------------------------------------------------------|
A|-------------------4-4-----------4-4-4-4---------4-4---4-------------------|
E|-1---------------1-----------------------------------0---------------------| x2

G|---------------------------------------------------------------------------|
D|---------------------------------------------------------------------------|
A|-----------------4-4-4-4-4-4-4-4-------------------------------------------|
E|-1-1-1-1-1-1-1-1-----------------0-0-0-0-0-0-0-0-0-0-0-0-0-0-0-------------| x2

Pre-Chorus – 00.56 – 01.09

G|---------------------------------------------------------------------------|
D|---------------------------------------------------------------------------|
A|-4-4---------4-------------------------------------------------------------|
E|----------------4--4---------4---1-1-1-1-1-1-1-1-1-1-1-1-1-1-1-------------|

G|---------------------------------------------------------------------------|
D|---------------------------------------------------------------------------|
A|-4-4---------4------------------------------------4-4-4--------------------|
E|----------------4--4---------4---0~--------------------4-4-4-1~------------|

Chorus – 01.09 – 01.23

G|---------------------------------------------------------------------------|
D|---------------------------------------------------------------------------|
A|-------------------------------------------------4-4-4-4-4-4-4-4-----------|
E|-1-1-1-1-1-1-1-1-0-0-0-0-0-0-0-0-4-4-4-4-4-4-4-4---------------------------| x2

Verse – 01.23 – 01.51

G|---------------------------------------------------------------------------|
D|---------------------------------------------------------------------------|
A|-------------------4-4-----------4-4-4-4---------4-4-4-4-------------------|
E|-1---------------1---------------------------------------------------------| 

G|---------------------------------------------------------------------------|
D|---------------------------------------------------------------------------|
A|-------------------4-4-----------4-4-4-4---------4-4-4-4-4-4-4-4-----------|
E|-1---------------1---------------------------------------------------------| 

G|---------------------------------------------------------------------------|
D|---------------------------------------------------------------------------|
A|-----------------4-4-4-4-4-4-4-4-------------------------------------------|
E|-1-1-1-1-1-1-1-1-----------------0-0-0-0-0-0-0-0-0-0-0-0-0-0-0-------------| x2

Pre-Chorus – 01.51 – 02.04

G|---------------------------------------------------------------------------|
D|---------------------------------------------------------------------------|
A|-4-4---------4-------------------------------------------------------------|
E|----------------4--4---------4---1-1-1-1-1-1-1-1-1-1-1-1-1-1-1-------------|

G|---------------------------------------------------------------------------|
D|---------------------------------------------------------------------------|
A|-4-4---------4---------------------------------4-4-4-4-------4-------------|
E|----------------4--4---------4---0~--------------------4-4-4---------------|

Chorus – 02.04 – 02.32

G|---------------------------------------------------------------------------|
D|---------------------------------------------------------------------------|
A|-------------------------------------------------4-4-4-4-4-4-4-4-----------|
E|-1-1-1-1-1-1-1-1-0-0-0-0-0-0-0-0-4-4-4-4-4-4-4-4---------------------------| x4

Bridge – 02.32 – 03.13

G|---------------------------------------------------------------------------|
D|---------------------------------------------------------------------------|
A|-------------------------------------------------------------4-4-----------|
E|-0-0-0-0-0-0-0-0-0-0-0-0-0-0-0-0-1-1-1-1-1-1-1-1-1-1-1-1-1-1---------------|

G|---------------------------------------------------------------------------|
D|---------------------------------------------------------------------------|
A|---------------------------------4-4-4-4-4-4-4-4-4--3--2--0----------------|
E|-0-0-0-0-0-0-0-0-0-0-0-0-0-0-0-0-------------------------------------------|

G|---------------------------------------------------------------------------|
D|---------------------------------------------------------------------------|
A|---------------------------------------------------------------------------|
E|-1~------------------------------------------------------------------------|

G|---------------------------------------------------------------------------|
D|---------------------------------------------------------------------------|
A|--------------------------------------------------4-4-3-2-2-3--------------|
E|-1~------------------------------------------------------------4-----------|

G|---------------------------------------------------------------------------|
D|---------------------------------------------------------------------------|
A|-----------------4-4-4-4-4-4-4-4-------------------------------------------|
E|-1-1-1-1-1-1-1-1-----------------0-0-0-0-0-0-0-0-0-0-0-0-0-0-0-0-----------|

G|---------------------------------------------------------------------------|
D|---------------------------------------------------------------------------|
A|-----------------4-4-4-4-4-4-4-4-------------------------------------------|
E|-1-1-1-1-1-1-1-1-----------------0-0-0-0-0-0-0-0~--------------------------|

Chorus – 03.13 – End.

G|---------------------------------------------------------------------------|
D|---------------------------------------------------------------------------|
A|-------------------------------------------------4-4-4-4-4-4-4-4-----------|
E|-1-1-1-1-1-1-1-1-0-0-0-0-0-0-0-0-4-4-4-4-4-4-4-4---------------------------| x3

G|---------------------------------------------------------------------------|
D|---------------------------------------------------------------------------|
A|-------------------------------------------------4-4-4-4-4-4-4-4-----------|
E|-1-1-1-1-1-1-1-1-0-0-0-0-0-0-0-0-4-4-4-4-4-4-4-4------------------1~-------|



14. WIDE AWAKE

Chorus – 00.36 – 01.19

G|---------------------------------------------------------------------------|
D|---------------------------------------------------------------------------|
A|---------------------------------------------------------------------------|
E|-7---------------3---------------0----------------7------------------------| x3

G|---------------------------------------------------------------------------|
D|---------------------------------------------------------------------------|
A|---------------------------------------------------------------------------|
E|-7---------------3---------------0----------------1------------------------|

G|---------------------------------------------------------------------------|
D|---------------------------------------------------------------------------|
A|---------------------------------------------------------------------------|
E|-7-7-7-7-7-7-7-7-7-7-7-7-7-----3/7-7-7-7-7-7-7-7-7-7-7-7-7-7-7-7-----------|

G|---------------------------------------------------------------------------|
D|---------------------------------------------------------------------------|
A|---------------------------------------------------------------------------|
E|-0-0-0-0-0-0-0-0-0-0-0-0-0-0-0-0-1-1-1-1-1-1-1-1-1-1-1-1-1-1-1-1-----------|

Verse – 01.19 – 01.43

G|---------------------------------------------------------------------------|
D|---------------------------------------------------------------------------|
A|---------------------------------------------------------------------------|
E|-7-7-7-7-7-7-7-7-3-3-3-3-3-3-3-3-0-0-0-0-0-0-0-0-7-7-7-7-7-7-7-7-----------|

G|---------------------------------------------------------------------------|
D|---------------------------------------------------------------------------|
A|---------------------------------------------------------------------------|
E|-7-7-7-7-7-7-7-7-3-3-3-3-3-3-3-3-0-0-0-0-0-0-0-0-1-1-1-1-1-1-1-1-----------|

G|---------------------------------------------------------------------------|
D|---------------------------------------------------------------------------|
A|---------------------------------------------------------------------------|
E|-7-7-7-7-7-7-7-7-3-3-3-3-3-3-3-3-0-0-0-0-0-0-0-0-7-7-7-7-7-7-7-7-----------|

G|---------------------------------------------------------------------------|
D|---------------------------------------------------------------------------|
A|---------------------------------------------------------------------------|
E|-7-7-7-7-7-7-7-7-3-3-3-3-3-3-3-3-0-0-0-0-0-0-0-0-1-1-1-1-1-1-1-1-----------|

Chorus – 01.43 – 02.26

G|---------------------------------------------------------------------------|
D|---------------------------------------------------------------------------|
A|---------------------------------------------------------------------------|
E|-7-7-7-7-7-7-7-7-3-3-3-3-3-3-3-3-0-0-0-0-0-0-0-0-7-7-7-7-7-7-7-7-----------| x3

G|---------------------------------------------------------------------------|
D|---------------------------------------------------------------------------|
A|---------------------------------------------------------------------------|
E|-7-7-7-7-7-7-7-7-3-3-3-3-3-3-3-3-0-0-0-0-0-0-0-0-1-1-1-1-1-1-1-1-----------|

G|---------------------------------------------------------------------------|
D|---------------------------------------------------------------------------|
A|---------------------------------------------------------------------------|
E|-7-7-7-7-7-7-7-7-7-7-7-7-7-7-7-7-3-3-3-3-3-3-3-3-7-7-7-7-7-7-7-7-----------|

G|---------------------------------------------------------------------------|
D|---------------------------------------------------------------------------|
A|---------------------------------------------------------------------------|
E|-0-0-0-0-0-0-0-0-0-0-0-0-0-0-0-0-1-1-1-1-1-1-1-1-1-1-1-1-1-1-1-1-----------|

Chorus Part 2 – 02.26 – 03.02

G|---------------------------------------------------------------------------|
D|---------------------------------------------------------------------------|
A|---------------------------------------------------------------------------|
E|-7-7-7-7-7-7-7-7-7-7-7-7-7-7-7-7-3-3-3-3-3-3-3-3-7-7-7-7-7-7-7-7-----------|

G|---------------------------------------------------------------------------|
D|---------------------------------------------------------------------------|
A|---------------------------------------------------------------------------|
E|-0-0-0-0-0-0-0-0-0-0-0-0-0-0-0-0-1-1-1-1-1-1-1-1-1-1-1-1-1-1-1-1-----------|

G|---------------------------------------------------------------------------|
D|---------------------------------------------------------------------------|
A|---------------------------------------------------------------------------|
E|-7-7-7-7-7-7-7-7-7-7-7-7-7-7-7-7-3-3-3-3-3-3-3-3-7-7-7-7-7-7-7-7-----------|

G|---------------------------------------------------------------------------|
D|---------------------------------------------------------------------------|
A|---------------------------------------------------------------------------|
E|-0-0-0-0-0-0-0-0-0-0-0-0-0-0-0-0-1-1-1-1-1-1-1-1-1-1-1-1-1-1-1-1-----------|

Thank you! 

| /  slide up
| \  slide down
| h  hammer-on
| p  pull-off
| ~  vibrato
| +  harmonic
| x  Mute note
===============================================================================

            
            
Suggest correction
Creating personal tab
Creating personal tab
You can edit any tab online and save it as your Personal.

You can edit, replace or remove any tab part or add personal notes – all changes will be seen only by you.

Personal tabs can be accessed anytime from any device, even offline.
Learn more »
Give kudos to tab author, rate the tab!
1 2 3 4 5
comments
print report bad tab
guest
You may want to rate the tab now too:
select rating
Wanna post a correction for this tab? Suggest correction