Oops, an error
Loading. Please wait.

In Orbit Tab

390 views 1 this week
no commentswrite comment
1 2 3 4 5
2 more votes to show rating
add to favorites
launch autoscroll
font size
0
reset
how to read this tab
guitar tuner
Autoscroll
slow
fast
+/-
esc
set tempo
stop
Help us to improve Ultimate-Guitar.com Take our survey!
×
Author
Difficulty
Tuning
novice
D# G# C# F# A# D#
------------------------------------------------------------------------------
                        IN ORBIT - MAN OVERBOARD
------------------------------------------------------------------------------

Tabbed by : Boris Paskhaver (bigbadb)
Email     : bp771@nyu.edu

Tuning :    Eb (Half Step Down)
            Eb, Ab, Db, Gb, Bb, eb

Key :       Bb Major

VERSE ONE (0:01)

   (x2)
eb|-------------------------------------------------------------------|
Bb|-------------------------------------------------------------------|
Gb|-------------------------------------------------------------------|
Db|--2-2-2-2-2-2-2-2-2-2-2-2-2-2-2-2-2-2-2-2-2-2-2-2-2-2-2-2-2-2-2-2--|
Ab|--2-2-2-2-2-2-2-2-2-2-2-2-2-2-2-2-2-2-2-2-2-2-2-2-2-2-2-2-2-2-2-2--|
Eb|--0-0-0-0-0-0-0-0-0-0-0-0-0-0-0-0-0-0-0-0-0-0-0-0-0-0-0-0-0-0-0-0--|
  1   Mouth is firing out blanks cause I've got nothing left to say
  2   All the times you never said "I wanna love you too"

eb|-------------------------------------------------------------------|
Gb|-------------------------------------------------------------------|
Bb|-------------------------------------------------------------------|
Db|------------4---------------------------------4--------------------|
Ab|-------2---------------------------------2-------------------------|
Eb|--4---------------------------------4------------------------------|
  1  Tools to rebuild the bridge     road that got in our way and
  2  Starting to come back and       all the things that I didn't do

PRECHORUS, PART 1 - RHYTHM (0:23)

   (x1) Guitar One - Muffled
eb|-------------------------------------------------------------------|
Bb|-------------------------------------------------------------------|
Gb|-------------------------------------------------------------------|
Db|--2-2-2-2-2-2-2-2-2-2-2-2-2-2-2-2-2-2-2-2-2-2-2-2-2-2-2-2-2-2-2-2--|
Ab|--2-2-2-2-2-2-2-2-2-2-2-2-2-2-2-2-2-2-2-2-2-2-2-2-2-2-2-2-2-2-2-2--|
Eb|--0-0-0-0-0-0-0-0-0-0-0-0-0-0-0-0-0-0-0-0-0-0-0-0-0-0-0-0-0-0-0-0--|

   (x1) (0:29)
eb|-----------------------|
Bb|-----------------------|
Gb|-----------------------|
Db|--4-4--4-4--4-4--4-4---|
Ab|--4-4--4-4--4-4--4-4---|
Eb|--2-2--2-2--2-2--2-2---|

PRECHORUS, - LEAD (0:29)

   (x1)
eb|---------------------------------------|
Bb|--12-------12-------12-------12--------|
Gb|-----11-11----11-11----11-11----11-11--|
Db|---------------------------------------|
Ab|---------------------------------------|
Eb|---------------------------------------|
        P.M--|   P.M--|   P.M--|   P.M--|

PRECHORUS, PART 2 (0:32)

   (x1)
eb|----------------------------------------------------------------------|
Bb|----------------------------------------------------------------------|
Gb|----------------------------------------------------------------------|
Db|--6-6--6-6--6-6--6-6------2-2--2-2--2-2--2-2------4-4--4-4--4-4--4-4--|
Ab|--6-6--6-6--6-6--6-6------2-2--2-2--2-2--2-2------4-4--4-4--4-4--4-4--|
Eb|--4-4--4-4--4-4--4-4------0-0--0-0--0-0--0-0------2-2--2-2--2-2--2-2--|
  1 Again                 I'm  sorry that I'm          bad boyfriend

   (x1)
eb|----------------------------------------------------------------------|
Bb|----------------------------------------------------------------------|
Gb|----------------------------------------------------------------------|
Db|--4-4-4-4-4-4-4-4-4-4-4-4-4-4-4-4--6-6-6-6-6-6-6-6-6-6-6-6-6-6-6-6----|
Ab|--4-4-4-4-4-4-4-4-4-4-4-4-4-4-4-4--6-6-6-6-6-6-6-6-6-6-6-6-6-6-6-6----|
Eb|--2-2-2-2-2-2-2-2-2-2-2-2-2-2-2-2--4-4-4-4-4-4-4-4-4-4-4-4-4-4-4-4----|
  1    You,             you didn't make this                   easi-

   (x1)
eb|-----------------------------------------|
Bb|-----------------------------------------|
Gb|-----------------------------------------|
Db|--2------2--2-2-2--2--2--2--2-2-2-2-2-2--|
Ab|--2------2--2-2-2--2--2--2--2-2-2-2-2-2--|
Eb|--0--0-0-0--0-0-0--0--0--0--0-0-0-0-0-0--|
        P.M                    P.M--------|
  1 -er         easier

CHORUS ONE (0:52) 
 
   (x1)
eb|-------------------------------------------------------------------|
Bb|-------------------------------------------------------------------|
Gb|--4-4-4-4-4-4-4-4-4-4-4-4-4-4-4-4-4-4-4-4-4-4-4-4-4-4-4-4-4-4-4-4--|
Db|--4-4-4-4-4-4-4-4-4-4-4-4-4-4-4-4-4-4-4-4-4-4-4-4-4-4-4-4-4-4-4-4--|
Ab|--2-2-2-2-2-2-2-2-2-2-2-2-2-2-2-2-2-2-2-2-2-2-2-2-2-2-2-2-2-2-2-2--|
Eb|-------------------------------------------------------------------|
  1   I'm sorry I say I'm sorry so much but it's so hard for me to 

   (x1)
eb|-------------------------------------------------------------------|
Bb|-------------------------------------------------------------------|
Gb|-------------------------------------------------------------------|
Db|--2-2-2-2-2-2-2-2-2-2-2-2-2-2-2-2-2-2-2-2-2-2-2-2-2-2-2-2-2-2-2-2--|
Ab|--2-2-2-2-2-2-2-2-2-2-2-2-2-2-2-2-2-2-2-2-2-2-2-2-2-2-2-2-2-2-2-2--|
Eb|--0-0-0-0-0-0-0-0-0-0-0-0-0-0-0-0-0-0-0-0-0-0-0-0-0-0-0-0-0-0-0-0--|
  1   I'm running on a treadmill ground and going nowhere and

   (x1)
eb|-------------------------------------------------------------------|
Bb|-------------------------------------------------------------------|
Gb|--6-6-6-6-6-6-6-6-6-6-6-6-6-6-6-6-6-6-6-6-6-6-6-6-6-6-6-6-6-6-6-6--|
Db|--6-6-6-6-6-6-6-6-6-6-6-6-6-6-6-6-6-6-6-6-6-6-6-6-6-6-6-6-6-6-6-6--|
Ab|--4-4-4-4-4-4-4-4-4-4-4-4-4-4-4-4-4-4-4-4-4-4-4-4-4-4-4-4-4-4-4-4--|
Eb|-------------------------------------------------------------------|
  1   on and on the cycle moves, without me and without you and I

   (x1)
eb|-------------------------------------------------------------------|
Bb|-------------------------------------------------------------------|
Gb|-------------------------------------------------------------------|
Db|--2-2-2-2-2-2-2-2-2-2-2-2-2-2-2-2-2-2-2-2-2-2-2-2-2-2-2-2-2-2-2-2--|
Ab|--2-2-2-2-2-2-2-2-2-2-2-2-2-2-2-2-2-2-2-2-2-2-2-2-2-2-2-2-2-2-2-2--|
Eb|--0-0-0-0-0-0-0-0-0-0-0-0-0-0-0-0-0-0-0-0-0-0-0-0-0-0-0-0-0-0-0-0--|
  1   realize now the world doesn't need you and me to keep spinning

POSTCHORUS (1:15)

   (x2)
eb|-------------------------------------------------------------------|
Bb|-------------------------------------------------------------------|
Gb|--8-8-8-8-8-8-8-8--9-9-9-9-9-9-9--8-8-8-8-8-8-8--9-9-9-9-----------|
Db|-------------------------------------------------------------------|
Ab|-------------------------------------------------------------------|
Eb|-------------------------------------------------------------------|
     P.M----------------------------------------------------|
  1                                                         Cause it
  2                                                         And broken

eb|-------------------------------------------------------------------|
Bb|-------------------------------------------------------------------|
Gb|-------------------------------------------------------------------|
Db|--2--2-2-2--2-2--2-2-2-2-2-2--2--2-2--2-2--2-2-2-2-2-2-2-----------|
Ab|--2--2-2-2--2-2--2-2-2-2-2-2--2--2-2--2-2--2-2-2-2-2-2-2-----------|
Eb|--0--0-0-0--0-0--0-0-0-0-0-0--0--0-0--0-0--0-0-0-0-0-0-0-----------|
  1   round and round without us every time we go to sleep
  2   hearts that lie in bed with promises still left to keep

FINAL CHORUS (1:39)

   (x1)
eb|-------------------------------------------------------------------|
Bb|-------------------------------------------------------------------|
Gb|--4-4-4-4-4-4-4-4-4-4-4-4-4-4-4-4-4-4-4-4-4-4-4-4-4-4-4-4-4-4-4-4--|
Db|--4-4-4-4-4-4-4-4-4-4-4-4-4-4-4-4-4-4-4-4-4-4-4-4-4-4-4-4-4-4-4-4--|
Ab|--2-2-2-2-2-2-2-2-2-2-2-2-2-2-2-2-2-2-2-2-2-2-2-2-2-2-2-2-2-2-2-2--|
Eb|-------------------------------------------------------------------|
  1   ceiling,         I'm awake all night and I just stare at the

   (x1)
eb|-------------------------------------------------------------------|
Bb|-------------------------------------------------------------------|
Gb|-------------------------------------------------------------------|
Db|--2-2-2-2-2-2-2-2-2-2-2-2-2-2-2-2-2-2-2-2-2-2-2-2-2-2-2-2-2-2-2-2--|
Ab|--2-2-2-2-2-2-2-2-2-2-2-2-2-2-2-2-2-2-2-2-2-2-2-2-2-2-2-2-2-2-2-2--|
Eb|--0-0-0-0-0-0-0-0-0-0-0-0-0-0-0-0-0-0-0-0-0-0-0-0-0-0-0-0-0-0-0-0--|
  1   ceiling,         I'm awake all night, and I just stare at the

   (x1)
eb|-------------------------------------------------------------------|
Bb|-------------------------------------------------------------------|
Gb|--6-6-6-6-6-6-6-6-6-6-6-6-6-6-6-6-6-6-6-6-6-6-6-6-6-6-6-6-6-6-6-6--|
Db|--6-6-6-6-6-6-6-6-6-6-6-6-6-6-6-6-6-6-6-6-6-6-6-6-6-6-6-6-6-6-6-6--|
Ab|--4-4-4-4-4-4-4-4-4-4-4-4-4-4-4-4-4-4-4-4-4-4-4-4-4-4-4-4-4-4-4-4--|
Eb|-------------------------------------------------------------------|
  1   on and on the cycle moves, without me and without you and I

   (x1)
eb|-------------------------------------------------------------------|
Bb|-------------------------------------------------------------------|
Gb|-------------------------------------------------------------------|
Db|--2-2-2-2-2-2-2-2-2-2-2-2-2-2-2-2-2-2-2-2-2-2-2-2-2-2-2-2-2-2-2-2--|
Ab|--2-2-2-2-2-2-2-2-2-2-2-2-2-2-2-2-2-2-2-2-2-2-2-2-2-2-2-2-2-2-2-2--|
Eb|--0-0-0-0-0-0-0-0-0-0-0-0-0-0-0-0-0-0-0-0-0-0-0-0-0-0-0-0-0-0-0-0--|
  1   realize now the world doesn't need you and me to keep

END ON (2:02)

   (x1)
eb|-------------------|
Bb|-------------------|
Gb|--4----------------|
Db|--4--  LET RING  --|
Ab|--2----------------|
Eb|-------------------|
  1  spinning
Suggest correction
Give kudos to tab author, rate the tab!
1 2 3 4 5
comments
print report bad tab
guest
You may want to rate the tab now too:
select rating
Wanna post a correction for this tab? Suggest correction