Oops, an error
Loading. Please wait.

Love Your Friends Die Laughing Tab

57,879 views 36 this week
1 commentread comment
1 2 3 4 5
x 27
add to favorites
launch autoscroll
font size
0
reset
how to read this tab
guitar tuner
Autoscroll
slow
fast
+/-
esc
set tempo
stop
Author
Difficulty
Tuning
novice
D# G# C# F# A# D#
Band: Man Overboard
Song: Love Your Friends, Die Laughing
Tuning: Half-Step Down [Eb Ab Db Gb Bb eb]
Tabbed By: Drew Hemesath

[Oh yeah](Well the night gets old so I'm back again)
D#|-----X---|----------0---------------------------------------|
A#|-----X---|----------0---------------------------------------|
F#|-----X---|----------1---------------------------------------|
C#|-----X---|----------2---|feel the strum|--------------------|
G#|-----X---|----------2---| pattern out  |--------------------|
D#|-----X---|----------0---------------------------------------|

(The day just started 'cause I'm up with my old friends)
D#|----------------------------------0--------------------|
A#|----------------------------------0--------------------|
F#|-----------------------------X-X--2--------------------|
C#|-----4-----------------------X-X--2--------------------|
G#|-----4-----------------------X-X--0--------------------|
D#|-----2-----------------------X-X-----------------------|

(A fat smoke and a funny joke)
D#|-0---------------------------------------|
A#|-0---------------------------------------|
F#|-1---------------------------------------|
C#|-2---------------------------------------|
G#|-2---------------------------------------|
D#|-0---------------------------------------|

(Sittin' like a sponge, letting everything soak)
D#|------------------------------------0--------------------|
A#|------------------------------------0--------------------|
F#|-------------------------------X-X--2--|let ring|--------|
C#|-4-----------------------------X-X--2--------------------|
G#|-4-----------------------------X-X--0--------------------|
D#|-2-----------------------------X-X-----------------------|

(And I just got the nerve get in the cage, so don't)
D#|------0-------------------------------------------------|
A#|------0-------------------------------------------------|
F#|------1-------------------------------------------------|
C#|------2-------------------------------------------------|
G#|------2-------------------------------------------------|
D#|------0-------------------------------------------------|

(bite me now)
D#|------------------------------------0--------------------|
A#|------------------------------------0--------------------|
F#|-------------------------------X-X--2--------------------|
C#|-4-----------------------------X-X--2--------------------|
G#|-4-----------------------------X-X--0--------------------|
D#|-2-----------------------------X-X-----------------------|

(And I just got the nerve get in the cage, so don't)
D#|--------0-------------------------------------------------|
A#|--------0-------------------------------------------------|
F#|--------1-------------------------------------------------|
C#|--------2-------------------------------------------------|
G#|--------2-------------------------------------------------|
D#|--------0-------------------------------------------------|

(bite me now)
D#|------------------------------------0--------------------|
A#|------------------------------------0--------------------|
F#|-------------------------------X-X--2--------------------|
C#|-4-----------------------------X-X--2--------------------|
G#|-4-----------------------------X-X--0--------------------|
D#|-2-----------------------------X-X-----------------------|

(Dude, you're hung up on nothing...)
D#|-0-------------------------------------------------|
A#|-0-------------------------------------------------|
F#|-1-------------------------------------------------|
C#|-2-------------------------------------------------|
G#|-2-------------------------------------------------|
D#|-0-------------------------------------------------|

D#|-0----------------------------------0--------------|
A#|-0----------------------------------0--------------|
F#|-9-----------------------------X-X--2--------------|
C#|-9-----------------------------X-X--2--------------|
G#|-7-----------------------------X-X--0--------------|
D#|-0-----------------------------X-X-----------------|[x2]

    We made love tonight as the result of a fight
D#|----------0-------------------------------------------------|
A#|----------0-------------------------------------------------|
F#|----------1-------------------------------------------------|
C#|----------2-------------------------------------------------|
G#|----------2-------------------------------------------------|
D#|----------0-------------------------------------------------|

(When you put your arms around me, the whole world's alright)
D#|----------------------------------------------0------------------X-X-|
A#|----------------------------------------------0------------------X-X-|
F#|-----------------------------------------X-X--2------------------X-X-|
C#|-----------4-----------------------------X-X--2------------------X-X-|
G#|-----------4-----------------------------X-X--0------------------X-X-|
D#|-----------2-----------------------------X-X---------------------X-X-|

(And a day's worth of bitchin' goes down the drain)
D#|---------0-------------------------------------------------|
A#|---------0-------------------------------------------------|
F#|---------1-------------------------------------------------|
C#|---------2-------------------------------------------------|
G#|---------2-------------------------------------------------|
D#|---------0-------------------------------------------------|

(When you lay in my bed and pick my brain)
D#|-------------------------------0----------------|
A#|-------------------------------0----------------|
F#|--------------------------X-X--2----------------|
C#|-----------4--------------X-X--2----------------|
G#|-----------4--------------X-X--0----------------|
D#|-----------2--------------X-X-------------------|

(Shut up, Shut up, it's my turn to talk)
D#|---------------0-------------------------------------------------|
A#|---------------0-------------------------------------------------|
F#|--X--X--X--X---1-------------------------------------------------|
C#|--X--X--X--X---2-------------------------------------------------|
G#|--X--X--X--X---2-------------------------------------------------|
D#|--X--X--X--X---0-------------------------------------------------|

(And don't try to run before you learn to walk)
D#|----------------------------------0--------------|
A#|----------------------------------0--------------|
F#|-----------------------------X-X--2--------------|
C#|------4----------------------X-X--2--------------|
G#|------4----------------------X-X--0--------------|
D#|------2----------------------X-X-----------------|

('Cause a day's worth of bitchin' goes down the drain)
D#|-----------0-------------------------------------------------|
A#|-----------0-------------------------------------------------|
F#|-----------1-------------------------------------------------|
C#|-----------2-------------------------------------------------|
G#|-----------2-------------------------------------------------|
D#|-----------0-------------------------------------------------|

(When you lay in my bed and pick my brain)
D#|-------------------------------0----------------|
A#|-------------------------------0----------------|
F#|--------------------------X-X--2----------------|
C#|-----------4--------------X-X--2----------------|
G#|-----------4--------------X-X--0----------------|
D#|-----------2--------------X-X-------------------|

(I left my heart with my phone in my center console)
D#|-0------------0------------0----------------------------|
A#|-0------------0------------0----------------------------|
F#|-2------------1------------4-------------6--------------|
C#|-2------------2------------4-------------6--------------|
G#|-0------------2------------2-------------4--------------|
D#|--------------0-----------------------------------------|

(I left my feelings with my wallet and my keys)
D#|-0------------0----------------0------------------------|
A#|-0------------0----------------0------------------------|
F#|-2------------1----------------4-------------6----------|
C#|-2------------2----------------4-------------6----------|
G#|-0------------2----------------2-------------4----------|
D#|--------------0-----------------------------------------|

(I feel so stupid, 'cause I came here without anything,)
D#|-0-------------0----------------0----------------------------|
A#|-0-------------0----------------0----------------------------|
F#|-2-------------1----------------4-----------------6----------|
C#|-2-------------2----------------4-----------------6----------|
G#|-0-------------2----------------2-----------------4----------|
D#|---------------0---------------------------------------------|

(but I'm finally at ease)
D#|------------0---------------0----------------0------|
A#|------------0---------------0----------------0------|
F#|------------2---------------1----------------4------|
C#|------------2---------------2----------------4------|
G#|------------0---------------2----------------2------|
D#|----------------------------0-----------------------|

(We made love tonight as the result of a fight)
D#|----------0-------------------------------------------------|
A#|----------0-------------------------------------------------|
F#|----------1-------------------------------------------------|
C#|----------2-------------------------------------------------|
G#|----------2-------------------------------------------------|
D#|----------0-------------------------------------------------|

(When you put your arms around me, the whole world's alright)
D#|----------------------------------------------0-------------------|
A#|----------------------------------------------0-------------------|
F#|-----------------------------------------X-X--2-------------------|
C#|-----------4-----------------------------X-X--2-------------------|
G#|-----------4-----------------------------X-X--0-------------------|
D#|-----------2-----------------------------X-X----------------------|

(And a day's worth of bitchin' goes down the drain)
D#|---------0-------------------------------------------------|
A#|---------0-------------------------------------------------|
F#|---------1-------------------------------------------------|
C#|---------2-------------------------------------------------|
G#|---------2-------------------------------------------------|
D#|---------0-------------------------------------------------|

(When you lay in my bed and pick my brain)
D#|-------------------------------0----------------|
A#|-------------------------------0----------------|
F#|--------------------------X-X--2----------------|
C#|-----------4--------------X-X--2----------------|
G#|-----------4--------------X-X--0----------------|
D#|-----------2--------------X-X-------------------|

(Shut up, Shut up, it's my turn to talk)
D#|---------------0-------------------------------------------------|
A#|---------------0-------------------------------------------------|
F#|--X--X--X--X---1-------------------------------------------------|
C#|--X--X--X--X---2-------------------------------------------------|
G#|--X--X--X--X---2-------------------------------------------------|
D#|--X--X--X--X---0-------------------------------------------------|

(And don't try to run before you learn to walk)
D#|----------------------------------0--------------|
A#|----------------------------------0--------------|
F#|-----------------------------X-X--2--------------|
C#|------4----------------------X-X--2--------------|
G#|------4----------------------X-X--0--------------|
D#|------2----------------------X-X-----------------|

('Cause a day's worth of bitchin' goes down the drain)
D#|-----------0-------------------------------------------------|
A#|-----------0-------------------------------------------------|
F#|-----------1-------------------------------------------------|
C#|-----------2-------------------------------------------------|
G#|-----------2-------------------------------------------------|
D#|-----------0-------------------------------------------------|

(When you lay in my bed and pick my brain)
D#|-------------------------------0----------------|
A#|-------------------------------0----------------|
F#|--------------------------X-X--2----------------|
C#|-----------4--------------X-X--2----------------|
G#|-----------4--------------X-X--0----------------|
D#|-----------2--------------X-X-------------------|

(I left my heart with my phone in my center console)
D#|-0------------0------------0----------------------------|
A#|-0------------0------------0----------------------------|
F#|-2------------1------------4-------------6--------------|
C#|-2------------2------------4-------------6--------------|
G#|-0------------2------------2-------------4--------------|
D#|--------------0-----------------------------------------|

(I left my feelings with my wallet and my keys)
D#|-0------------0----------------0------------------------|
A#|-0------------0----------------0------------------------|
F#|-2------------1----------------4-------------6----------|
C#|-2------------2----------------4-------------6----------|
G#|-0------------2----------------2-------------4----------|
D#|--------------0-----------------------------------------|

(I feel so stupid, 'cause I came here without anything,)
D#|-0-------------0----------------0----------------------------|
A#|-0-------------0----------------0----------------------------|
F#|-2-------------1----------------4-----------------6----------|
C#|-2-------------2----------------4-----------------6----------|
G#|-0-------------2----------------2-----------------4----------|
D#|---------------0---------------------------------------------|

(but I'm finally at ease)
D#|------------0---------------0----------------0------|
A#|------------0---------------0----------------0------|
F#|------------2---------------1----------------4------|
C#|------------2---------------2----------------4------|
G#|------------0---------------2----------------2------|
D#|----------------------------0-----------------------|

D#|-0-------0-------0----------|
A#|-0-------0-------0----------|
F#|-4-------2-------1----------|
C#|-4-------2-------2----------|
G#|-2-------0-------2----------|
D#|-----------------0----------|

Suggest correction
comments
print report bad tab
1 comment total.
0 reply
infamous.9 10 Mar 02, 2011 11:38 PM

great tab, quick ditty ;)

guest
You may want to rate the tab now too:
select rating
Wanna post a correction for this tab? Suggest correction