Oops, an error
Loading. Please wait.

The Usual Results Tab

184 views 1 this week
no commentswrite comment
1 2 3 4 5
please rate
add to favorites
launch autoscroll
font size
0
reset
how to read this tab
guitar tuner
Autoscroll
slow
fast
+/-
esc
set tempo
stop
Help us to improve Ultimate-Guitar.com Take our survey!
×
Author
Difficulty
Tuning
novice
D# G# C# F# A# D#
------------------------------------------------------------------------------
                        THE USUAL RESULTS - MAN OVERBOARD
------------------------------------------------------------------------------

Tabbed by : Boris Paskhaver (bigbadb)
Email     : bp771@nyu.edu

Tuning :    Eb (Half Step Down)
            Eb, Ab, Db, Gb, Bb, eb

Key :       Bb Major

VERSE ONE (0:01)

   (x2)
eb|------------------------------------------------------------------------|
Bb|------------------------------------------------------------------------|
Gb|------------------------------------------------------------------------|
Db|--4--6--6------------------------------4--6-----------------------------|
Ab|--4--6--6---x-x-x-x-x-x-x-x-x-x-x-x----4--6----x-x-x-x-x-x-x-x-x-x-x-x--|
Eb|--2--4--4---x-x-x-x-x-x-x-x-x-x-x-x----2--4----x-x-x-x-x-x-x-x-x-x-x-x--|
  1                She said "Ok,       I'm sorry, I know I'm not perfect
  2                Failure to not      accomplish all that which

                                                    1st Time       2nd Time
eb|--------------------------------------------|----------------|------------|
Bb|--------------------------------------------|----------------|------------|
Gb|---------4-4-4-----------4-4-4--------------|----------------|------------|
Db|--2-2-2--4-4-4----2-2-2--4-4-4--2--2--2--2--|--2--2---2-2-2--|--2-6--2-4--|
Ab|--2-2-2--2-2-2----2-2-2--2-2-2--2--2--2--2--|--2--2---2-2-2--|--2-6--2-4--|
Eb|--0-0-0-----------0-0-0---------0--0--0--0--|--0--0---0-0-0--|--0-4--0-2--|
  1  Take a look in the  mirror    one who's breaking promises
  2  Take a look in the  mirror    one who's breaking             promises

PRECHORUS (0:18)

   (x1)
eb|--------------------------------------------------------------------|
Bb|--------------------------------------------------------------------|
Gb|--9------------------------------------------------9----------------|
Db|--9-----------------2-6----2-4----2----------------9--  LET RING  --|
Ab|--7--  LET RING  ---2-6----2-4----2--  LET RING  --7----------------|
Eb|--------------------0-4----0-2----0---------------------------------|
  1    I'm not the      promises
    
CHORUS ONE (0:27):

   (x2)
eb|---------------------------------------------------------------------|
Bb|---------------------------------------------------------------------|
Gb|---------------------------------------------------------------------|
Db|--2--2-2-2-2-2-2-2-2-2-2-2-2-2-2--4/6--6-6-4-4--4/6--6-6-4-4---------|
Ab|--2--2-2-2-2-2-2-2-2-2-2-2-2-2-2--4/6--6-6-4-4--4/6--6-6-4-4---------|
Eb|--0--0-0-0-0-0-0-0-0-0-0-0-0-0-0--2/4--4-4-2-2--2/4--4-4-2-2---------|
  1  Look at us now                    this isn't how we wanted 
  2  Leaves from a tree, I tried to   make you believe but you're re-

eb|---------------------------------------------------------------------|
Bb|---------------------------------------------------------------------|
Gb|---------------------------------------------------------------------|
Db|--2--2-2-2-2-2-2-2-2-2-2-2-2-2-2--4/6--6-6-4-4--4/6--6-6-4-----------|
Ab|--2--2-2-2-2-2-2-2-2-2-2-2-2-2-2--4/6--6-6-4-4--4/6--6-6-4--  STOP --|
Eb|--0--0-0-0-0-0-0-0-0-0-0-0-0-0-0--2/4--4-4-2-2--2/4--4-4-2-----------|
  1  us to turn out                    relationships fall like
  2  -luctant right now                woah

POSTCHORUS (0:45) - Guitar One plays chorus again

   (x2) Guitar Two [Cut off last "11" note second time around ]
eb|------------------------------------------------------------|
Bb|--16p12----16----16----16-------14p12----14----14----12-----|
Gb|--------11----11----11----11----------11----11----11----11--|
Db|------------------------------------------------------------|
Ab|------------------------------------------------------------|
Eb|------------------------------------------------------------|

VERSE TWO (0:54)

   (x1)
eb|------------------------------------------------------------------------|
Bb|------------------------------------------------------------------------|
Gb|------------------------------------------------------------------------|
Db|--4--6--6------------------------------4--6-----------------------------|
Ab|--4--6--6---x-x-x-x-x-x-x-x-x-x-x-x----4--6----x-x-x-x-x-x-x-x-x-x-x-x--|
Eb|--2--4--4---x-x-x-x-x-x-x-x-x-x-x-x----2--4----x-x-x-x-x-x-x-x-x-x-x-x--|
  1               I'm getting weaker                I'm going nowhere

   (x1)
eb|----------------------------------------------------------|
Bb|----------------------------------------------------------|
Gb|---------4-4-4-----------4-4-4----------------------------|
Db|--2-2-2--4-4-4----2-2-2--4-4-4--2--2--2--2--2--2---2-2-2--|
Ab|--2-2-2--2-2-2----2-2-2--2-2-2--2--2--2--2--2--2---2-2-2--|
Eb|--0-0-0-----------0-0-0---------0--0--0--0--0--0---0-0-0--|
  1     Fading out      slowly      just like a movie

   (x1)
eb|------------------------------------------------------------------------|
Bb|------------------------------------------------------------------------|
Gb|------------------------------------------------------------------------|
Db|--4--6--6------------------------------4--6-----------------------------|
Ab|--4--6--6---x-x-x-x-x-x-x-x-x-x-x-x----4--6----x-x-x-x-x-x-x-x-x-x-x-x--|
Eb|--2--4--4---x-x-x-x-x-x-x-x-x-x-x-x----2--4----x-x-x-x-x-x-x-x-x-x-x-x--|
  1          I held you last night                  with the usual re-

ALTERNATE PRECHORUS (1:09)

   (x1) Guitar One - Rhythm
eb|--------------------------------------------------------------------------|
Bb|--------------------------------------------------------------------------|
Gb|-----------------------------4-4-4-4-----------------------------4-----4--|
Db|--2-2-2-2--4-4-4-4--6-6-6-6--4-4-4-4--2-2-2-2--4-4-4-4--6-6-6-6--4-----4--|
Ab|--2-2-2-2--4-4-4-4--6-6-6-6--2-2-2-2--2-2-2-2--4-4-4-4--6-6-6-6--2-x-x-2--|
Eb|--0-0-0-0--2-2-2-2--4-4-4-4-----------0-0-0-0--2-2-2-2--4-4-4-4-----------|
  1  -sults,    w   o   a   h                      w   o   a   h

   (x2) Guitar Two - Lead [Cut off last "11" note second time around]
eb|--------------------------------------------------------------------------|
Bb|--16----16------14----14------12----12------14----14----------------------|
Gb|-----11----11------11----11------11----11------11----11-------------------|
Db|--------------------------------------------------------------------------|
Ab|--------------------------------------------------------------------------|
Eb|--------------------------------------------------------------------------|

OUTRO CHORUS (1:18)

   (x4) Guitar One - Rhythm
eb|---------------------------------------------------------------------|
Bb|---------------------------------------------------------------------|
Gb|---------------------------------------------------------------------|
Db|--2--2-2-2-2-2-2-2-2-2-2-2-2-2-2--4/6--6-6-4-4--4/6--6-6-4-4---------|
Ab|--2--2-2-2-2-2-2-2-2-2-2-2-2-2-2--4/6--6-6-4-4--4/6--6-6-4-4---------|
Eb|--0--0-0-0-0-0-0-0-0-0-0-0-0-0-0--2/4--4-4-2-2--2/4--4-4-2-2---------|
  1  Look at us now                    this isn't how we wanted 
  2  Leaves from a tree, I tried to   make you believe but you're re-
  3  Look at us now                    this isn't how we wanted 
  4  Leaves from a tree, I tried to   make you believe but you're re-

eb|---------------------------------------------------------------------|
Bb|---------------------------------------------------------------------|
Gb|---------------------------------------------------------------------|
Db|--2--2-2-2-2-2-2-2-2-2-2-2-2-2-2--4/6--6-6-4-4--4/6--6-6-4-----------|
Ab|--2--2-2-2-2-2-2-2-2-2-2-2-2-2-2--4/6--6-6-4-4--4/6--6-6-4--  STOP --|
Eb|--0--0-0-0-0-0-0-0-0-0-0-0-0-0-0--2/4--4-4-2-2--2/4--4-4-2-----------|
  1  us to turn out                    relationships fall like
  2  -luctant right now                woah
  3  us to turn out                    relationships fall like
  4  -luctant right now                woah

   (x2) Guitar Two (1:36) [Cut off last "11" note second time around]
eb|------------------------------------------------------------|
Bb|--16p12----16----16----16-------14p12----14----14----12-----|
Gb|--------11----11----11----11----------11----11----11----11--|
Db|------------------------------------------------------------|
Ab|------------------------------------------------------------|
Eb|------------------------------------------------------------|
Suggest correction
Give kudos to tab author, rate the tab!
1 2 3 4 5
comments
print report bad tab
guest
You may want to rate the tab now too:
select rating
Wanna post a correction for this tab? Suggest correction