Oops, an error
Loading. Please wait.

Amor Azul Tab

by Man Ray
13 views 1 this week
no commentswrite comment
1 2 3 4 5
3 more votes to show rating
add to favorites
launch autoscroll
font size
0
reset
how to read this tab
guitar tuner
×
Best way to learn
"Amor Azul"
Autoscroll
slow
fast
+/-
esc
set tempo
stop
Man Ray - Amor Azul

Esta cancion se la dedico a alguien muy especial...


Intro: D7-[ch]Bm-D7-SIm[/ch]


e|-------------------------------------------------------------|
B|-------------------------------------------------------------|
G|-------------------------------------------------------------|
D|----------0-2-4-5-4------------------4------------2-4-5-4----|
A|--0-2-4-------------0--0-2-4-2-4-2-0---0--0-2-4-5------------|
E|-------------------------------------------------------------|


[ch]Bm         A[/ch]
Buen día bombón azul
Em7         A
Burbujas flotando atrás
[ch]Bm        A[/ch]
Decías que no era verdad
Em7                  A
que escuchando no se puede soñar

Coro:

     D7  [ch]Bm[/ch]
Pero hay amores
D7          [ch]Bm[/ch]
dulces como ves las flores
D7  [ch]Bm[/ch]
Hay amores
D7            [ch]Bm[/ch]
suaves perlas de colores


[ch]Bm         A[/ch]
Buen día mi príncipe azul
Em7     A
podrías darme tu luz
[ch]Bm         A[/ch]
Mi sombra proyectará
Em7         A
senderos de libertad

Coro:

     D7       [ch]Bm[/ch]
Que traerán más flores
D7            [ch]Bm[/ch]
suaves piezas de colores
D7  [ch]Bm[/ch]
Hay amores
D7            [ch]Bm[/ch]
sin disfraces ni rencores


F               A
Los días sin final
F             A   A-A-A#7-C7  C7-C7-C#7-D7
no volverán jamas


[ch]Bm           A[/ch]
Buen día, mi corazón
Em7         A
latiendo temblando de amor
[ch]Bm           A[/ch]
Enamorada me lleva el sol
Em7         A
descanso oyendo tu voz

Coro:

       D7  [ch]Bm[/ch]
Porque hay amores
D7          [ch]Bm[/ch]
dulces como ves las flores
D7  [ch]Bm[/ch]
Hay amores
D7            [ch]Bm[/ch]
sin disfraces ni rencores


e|-----------------------------------------------------------------|
B|-----------------------------------------------------------------|
G|-----------------------------------------------------------------|
D|-4-----------------4------------0-2-4-5-4------------------4-----|
A|---0-0-2-4-2-4-2-0----0--0-2-4------------0--0-2-4-2-4-2-0---0---|
E|-----------------------------------------------------------------|


e|-------------------------|
B|-------------------------|
G|-------------------------|
D|-------------------------|
A|--0-2-4-5-4-5-7/9--------|
E|-------------------------|


    A#7   C7  C#7   D7  F  Em7

e:  1    3    4    5   0   0
B:  3    5    6    7   1   3
G:  2    4    5    6   2   0
D:  3    5    6    7   3   2
A:  1    3    4    5   3   2
E:  1    3    4    5   0   0
Suggest correction
Give kudos to tab author, rate the tab!
1 2 3 4 5
comments
print report bad tab
guest
You may want to rate the tab now too:
select rating
Wanna post a correction for this tab? Suggest correction