Oops, an error
Loading. Please wait.

Caribe Sur Bass Tab

52 views 1 this week
no commentswrite comment
1 2 3 4 5
3 more votes to show rating
add to favorites
launch autoscroll
font size
0
reset
guitar tuner
Autoscroll
slow
fast
+/-
esc
set tempo
stop
Help us to improve Ultimate-Guitar.com Take our survey!
×
Verso
|----------------|----------------|----------------|----------------|
|----4-7---------|----4-7-----4-7-|----------------|------4-------4-|
|5-----------4-7-|5-------5-------|----2-5-----2-5-|----5-------5---|
|--------5-------|----------------|3-------3-------|7-------7-------|

|----------------|----------------|----------------|----------------|
|----4-7---------|----4-7-----4-7-|----------------|------4-------4-|
|5-----------4-7-|5-------5-------|----2---5---2---|----5-------5---|
|--------5-------|----------------|3-------------3-|7-------7-------|

Estribillo x2
|----------------|----------------|----------------|----------------|
|----------------|------4---------|----------------|------4---------|
|--------4---7---|----5-----------|--------4---7---|----5-----------|
|5-----5---------|7-------3---3---|5-----5---------|7-------3---3---|

Verso x2
Estribillo
|----------------|----------------|----------------|----------------|
|----------------|------4---------|----------------|------4---------|
|--------4---7---|----5-----------|--------4---7---|----5-----------|
|5-----5---------|7-------3---3---|5-----5---------|7-------3---3---|

|----------------|----------------|----------------|----------------|
|----------------|------4---------|----------------|----------------|
|--------4---7---|----5-----------|--------4---7---|----------------|
|5-----5---------|7-------3---3---|5-----5---------|3-3-3-3-3-3-3-3-|

Solo x2
|----------------|----------------|----------------|----------------|
|----------------|----------------|----------------|----------------|
|----5-------2---|----4---7---4---|----5-------2---|----4---7-7-4---|
|7-----7-3-----3-|5-------------5-|7-----7-3-----3-|5-----5-------5-|

Verso x2
Estribillo
|----------------|----------------|----------------|----------------|
|----------------|------4---------|----------------|------4---------|
|--------4---7---|----5-----------|--------4---7---|----5-----------|
|5-----5---------|7-------3---3---|5-----5---------|7-------3---3---|

|----------------|----------------|----------------|----------------|
|----------------|------4---------|----------------|----------------|
|--------4---7---|----5-----------|--------4---7---|----------------|
|5-----5---------|7-------3---3---|5-----5---------|3-3-3-3-3-3-3-3-|

Solo hasta el final de la cancion
|----------------|----------------|----------------|----------------|
|----------------|----------------|----------------|----------------|
|----5-------2---|----4---7---4---|----5-------2---|----4---7-7-4---|
|7-----7-3-----3-|5-------------5-|7-----7-3-----3-|5-----5-------5-|
Suggest correction
Give kudos to tab author, rate the tab!
1 2 3 4 5
comments
print report bad tab
guest
You may want to rate the tab now too:
select rating
Wanna post a correction for this tab? Suggest correction