Oops, an error
Loading. Please wait.

Raise Your Flag bass

1,585 views 9 this week
no commentswrite comment
1 2 3 4 5
3 more votes to show rating
add to favorites
×
Save as Personal and add changes to this tab that will be seen only by you. Learn more ›
×
You can save this tab as Personal to edit and correct it or add notes. All changes will be seen only by you. Learn more »
launch autoscroll
font size
0
reset
guitar tuner
edit
Autoscroll
slow
fast
+/-
esc
set tempo
stop
Author
Difficulty
-------------------------------------------------------------------------------
                             MAN WITH A MISSION - Raise Your Flag
-------------------------------------------------------------------------------
Tabbed by: Rhaonoa / Ramiro Nicolás Gil
E-mail: resident_e4@hotmail.com
https://www.youtube.com/watch?v=PiQpGzYMVos

INTRO (optional) & (play softly)
G|--------------------------------------------------------|
D|--------------------------------------------------------|
A|--------------------------------------------------------|
E|-00x--00-0x--00-0x--00-0x--0-33x--33-3x--33-3x--33-3x-3-|

G|--------------------------------------------------------|
D|--------------------------------------------------------|
A|--------------------------------------------------------|
E|-00x--00-0x--00-0x--00-0x--0-33x--33-3x--33-3x--33-3x-3-|

G|--------------------------------------------------------|
D|--------------------------------------------------------|
A|--------------------------------------------------------|
E|-00x--00-0x--00-0x--00-0x--0-33x--33-3x--33-3x--33-3x-3-|

G|----------------------------------------|
D|----------------------------------------|
A|----------------------------------------|
E|-00x--00-0x--00-0x--00-0x--0-33x--33-3x-|

BUILD TO BRIDGE
G|----------------------------------------------|
D|----------------------------------------------|
A|--7/--------7/--------7/--------7/--------15/-|
E|----------------------------------------------|

BRIDGE
G|----------------------------------------------------------------|
D|-----------------------------------------------------5-7--5---5-|
A|-22-2-2--22-2-2--22-2-2--2-0-2-2--44-4-4--44-4-4--55--------7---|
E|----------------------------------------------------------------|

G|--------------------------------------------------------|
D|--------------------------------------------------------|
A|-77-7-7--77-7-7--55-5-5--55-5-5--33-3-3--55-5-5--55-5-5-|
E|--------------------------------------------------------|


G|----------------------|
D|-7-5-4-5-4-0----------|
A|--------------9--7--5-|
E|----------------------|

CHORUS
G|--------------------------------------------------------------------------------
D|--------------------------------------------------------------------------------
A|-----------------------------------------3--33-33--3--33-33--3--33-33--3--33-33-
E|-0--00-00--0--00-00--0--00-00--0--00-00-----------------------------------------
--------------------------------------------------------------------------------|
--------------------------------------------------------------------------------|
--------------------------------------------------------------------------------|
-3--33-33--3--33-33--3--33-33--3--33-33--0--00-00--0--00-00--0--00-00--0--00-00-|

G|--------------------------------------------------------------------------------
D|--------------------------------------------------------------------------------
A|-----------------------------------------3--33-33--3--33-33--3--33-33--3--33-33-
E|-0--00-00--0--00-00--0--00-00--0--00-00-----------------------------------------
--------------------------------------------------------------------------------|
--------------------------------------------------------------------------------|
-------------------------------------------------------------2--22-22--2--22-22-|
-3--33-33--3--33-33--3--33-33--3--33-33--0--00-00--0--00-00---------------------|

G|--------------------------------------------------------------------------------
D|--------------------------------------------------------------------------------
A|-7--77-77--7--77-77--7--77-77--7--77-77--3--33-33--3--33-33--3--33-33--3--33-33-
E|--------------------------------------------------------------------------------
--------------------------------------------------------------------------------|
--------------------------------------------------------------------------------|
-5--55-55--5--55-55--5--55-55--5--55-55-----------------------------------------|
-----------------------------------------3--33-33--3--33-33--2--22-22--2--22-22-|

G|--------------------------------------------------------------------------------
D|--------------------------------------------------------------------------------
A|-7--77-77--7--77-77--7--77-77--7--77-77--3--33-33--3--33-33--3--33-33--3--33-33-
E|--------------------------------------------------------------------------------
--------------------------------------------------------------------------------|
--------------------------------------------------------------------------------|
-5--55-55--5--55-55--5--55-55--5--55-55-----------------------------------------|
-----------------------------------------3--33-33--3--33-33--2--22-22--2--22-22-|

G|---------------------|
D|-33-3--5-3--33-5-3---|
A|-------------------3-|
E|---------------------|

G|----------------------------------------------|
D|----------------------------------------------|
A|-7/------5/--7/---------7/------5/--7/--------|
E|-----9-5---------5-3-2------9-5---------5-3-2-|

BRIDGE 2
G|----------------------------------------------------------------|
D|-----------------------------------------------------5-7--5---5-|
A|-22-2-2--22-2-2--22-2-2--2-0-2-2--44-4-4--44-4-4--55--------7---|
E|----------------------------------------------------------------|

G|----------------------------------------------------------------|
D|------------9---------------7-----------------------------------|
A|-77-7-7--77---7--55-5-5--55---5--33-3-3--33-3-3--55-5-5--55-5-5-|
E|----------------------------------------------------------------|

G|---------------------------------------|
D|-7-5-4-5-4-0---------------------------|
A|-----------------3------------------3/-|
E|--------------0-----3--3x-3x-33x-3x----|

CHORUS
G|--------------------------------------------------------------------------------
D|--------------------------------------------------------------------------------
A|-----------------------------------------3--33-33--3--33-33--3--33-33--3--33-33-
E|-0--00-00--0--00-00--0--00-00--0--00-00-----------------------------------------
--------------------------------------------------------------------------------|
--------------------------------------------------------------------------------|
--------------------------------------------------------------------------------|
-3--33-33--3--33-33--3--33-33--3--33-33--0--00-00--0--00-00--0--00-00--0--00-00-|

G|--------------------------------------------------------------------------------
D|--------------------------------------------------------------------------------
A|-----------------------------------------3--33-33--3--33-33--3--33-33--3--33-33-
E|-0--00-00--0--00-00--0--00-00--0--00-00-----------------------------------------
--------------------------------------------------------------------------------|
--------------------------------------------------------------------------------|
-------------------------------------------------------------2--22-22--2--22-22-|
-3--33-33--3--33-33--3--33-33--3--33-33--0--00-00--0--00-00---------------------|

G|--------------------------------------------------------------------------------
D|--------------------------------------------------------------------------------
A|-7--77-77--7--77-77--7--77-77--7--77-77--3--33-33--3--33-33--3--33-33--3--33-33-
E|--------------------------------------------------------------------------------
--------------------------------------------------------------------------------|
--------------------------------------------------------------------------------|
-5--55-55--5--55-55--5--55-55--5--55-55-----------------------------------------|
-----------------------------------------3--33-33--3--33-33--2--22-22--2--22-22-|

G|-------------------------|
D|-33-3--5-3--33-5-3-------|
A|-------------------3--7/-|
E|-------------------------|

BUILD TO BRIDGE (optional) & (play softly)
G|--------------------------------------------------------|
D|--------------------------------------------------------|
A|--------------------------------------------------------|
E|-00x--00-0x--00-0x--00-0x--0-33x--33-3x--33-3x--33-3x-3-|

G|--------------------------------------------------------|
D|--------------------------------------------------------|
A|--------------------------------------------------------|
E|-00x--00-0x--00-0x--00-0x--0-33x--33-3x--33-3x--33-3x-3-|

BRIDGE 3
G|--------------------------------------------------------------|
D|--------------------------------------------------------------|
A|-77-7-7/--------1010-10-10/--------77-7-7/--------1010-10-10/-|
E|--------------------------------------------------------------|


G|------------------------------------------------|
D|------------------------------------------------|
A|-77-7-7/----77-7-7----1010-10-10/----1010-10-10-|
E|------------------------------------------------|

G|------------------------------------------------|
D|------------------------------------------------|
A|-77-7-7/----77-7-7----1010-10-10/----1010-10-10-|
E|------------------------------------------------|

G|----------------------------------------------------|
D|----------------------------------------------------|
A|-77-77-7-77-7-77-7-7-1010-1010-10-1010-10101210--10-|
E|-----------------------------------------------12---|

G|------------------------------------------------------------|
D|------------9---------------7---------------------557-5---5-|
A|-77-7-7--77---7--55-5-5--55---5--33-3-3--33-3-3--5------7---|
E|------------------------------------------------------------|

G|---------------------------------------|
D|-7-5-4-5-4-0---------------------------|
A|-----------------3---------------------|
E|--------------0-----3--3x-3x-33x-3x-3--|

CHORUS 2
G|--------------------------------------------------------------------------------
D|--------------------------------------------------------------------------------
A|-----------------------------------------3--33-33--3--33-33--3--33-33--3--33-33-
E|-0--00-00--0--00-00--0--00-00--0--00-00-----------------------------------------
--------------------------------------------------------------------------------|
--------------------------------------------------------------------------------|
--------------------------------------------------------------------------------|
-3--33-33--3--33-33--3--33-33--3--33-33--0--00-00--0--00-00--0--00-00--0--00-00-|

G|--------------------------------------------------------------------------------
D|--------------------------------------------------------------------------------
A|-7--77-77--7--77-77--7--77-77--7--77-77--3--33-33--3--33-33--3--33-33--3--33-33-
E|--------------------------------------------------------------------------------
--------------------------------------------------------------------------------|
--------------------------------------------------------------------------------|
-5--55-55--5--55-55--5--55-55--5--55-55-----------------------------------------|
-----------------------------------------3--33-33--3--33-33--2--22-22--2--22-22-|

G|--------------------------------------------------------------------------------
D|--------------------------------------------------------------------------------
A|-7--77-77--7--77-77--7--77-77--7--77-77--3--33-33--3--33-33--3--33-33--3--33-33-
E|--------------------------------------------------------------------------------
--------------------------------------------------------------------------------|
--------------------------------------------------------------------------------|
-5--55-55--5--55-55--5--55-55--5--55-55-----------------------------------------|
-----------------------------------------3--33-33--3--33-33--2--22-22--2--22-22-|

CLOSING
G|-----------------------------------|
D|-33-3--5-3--33-5-3-----------------|
A|-------------------3--33-3-33-3-3h-|
E|-----------------------------------|

It took me a while to make and write these tabs, and I'd really appreciate some feedback; 
or if you learned the song I'd love to see you play! I hope you enjoy, and hope they are good! 
They're my seconds tabs ever made. If you have any remarks, opinions or any kind of suggestions, 
please post them! It was very difficult for me to learn from just watching how other people 
played it, and watching concerts to try to pick up a few of the notes - so I hope this will 
save you some time and help you play an awesome track!
Thanks you very much and enjoy! :)

(「゚Д゚)「 GOW GOW
-Rhaonoa

| /  slide up
| \  slide down
| h  hammer-on
| p  pull-off
| ~  vibrato
| +  harmonic
| x  Mute note
===============================================================================

            
            
Suggest correction
Creating personal tab
Creating personal tab
You can edit any tab online and save it as your Personal.

You can edit, replace or remove any tab part or add personal notes – all changes will be seen only by you.

Personal tabs can be accessed anytime from any device, even offline.
Learn more »
Give kudos to tab author, rate the tab!
1 2 3 4 5
comments
print report bad tab
guest
You may want to rate the tab now too:
select rating
Wanna post a correction for this tab? Suggest correction