Oops, an error
Loading. Please wait.

Arde El Cielo Tab

version 2
version 2

Whole song

Interactive

2,314 views 1 this week
no commentswrite comment
1 2 3 4 5
2 more votes to show rating
add to favorites
launch autoscroll
font size
0
reset
how to read this tab
guitar tuner
Autoscroll
slow
fast
+/-
esc
set tempo
stop
Help us to improve Ultimate-Guitar.com Take our survey!
×
Difficulty
intermediate
Intro:

(Bien, entre cada acorde hay nota muerta, solo es cuestion de esuchen la canción y vean 
el número de rasgeos tanto del acorde como de la nota muerta. Aqui solo les muestro el acorde)

e|---4-----------2-----4----4--(4)-|
b|---5-----2-----2-----4----5--(5)-|
g|---6-----2-----4-----4----6--(6)-|
D|---6-----2-----4-----2----6--(6)-|
A|---4-----------2-----2----4--(4)-|
E|---4-----------2-----4----4--(4)-|


Verso:

e|----4-X-X-X-X---------X-X--2-X-X-X-X--4-(4)----|
b|----5-X-X-X-X-2-(2)-2-X-X--2-X-X-X-X--4-(4)--º-|
g|----6-X-X-X-X-2-(2)-2-X-X--4-X-X-X-X--4-(4)----|
D|----6-X-X-X-X-2-(2)-2-X-X--4-X-X-X-X--2-(2)----|
A|----4-X-X-X-X---------X-X--2-X-X-X-X--2-(2)--º-|
E|----4-X-X-X-X---------X-X--2-X-X-X-X--4-(4)----|


Coro

(Es igual que el intro)


Solo (X2)

e|-----------------------------------------------|
b|-----------------------------------------------|
g|------------------------11-11------------------|
D|---5/6--6---9-9--9--9---11-11--11-x-11-11------|
A|---5/6--6---9-9--9--9----9--9--11-x-11-11------|
E|---3/4--4---7-7--7--7-----------9-x--9--9------|


(No estoy muy seguro de esta parte, si alguien sabe esta parte, puede corregirme)

e|----------------------------------------4h7p4----------------------|
b|------------------------------------7~--------7—4h7p4--------------|
g|---6b8-(8)-8-8-8-8-8r6—4p6---4b------------------------6b8r6-(6)---|
D|---------------------------6---6-----------------------------------|
A|-------------------------------------------------------------------|
E|-------------------------------------------------------------------|


e|-----------------------------|
b|-----------------------------|
g|-----------------------------|
D|--4-(4)--4-4-5-7-(7)---------|
A|--4-(4)--4-4-5-7-(7)---------|
E|--2-(2)--2-2-3-5-(5)---------|


Interludio (Igual que en el Intro)

e|---4-----------2-----4----4--|
b|---5-----2-----2-----4----5--|
g|---6-----2-----4-----4----6--|
D|---6-----2-----4-----2----6--|
A|---4-----------2-----2----4--|
E|---4-----------2-----4----4--|

Y se siguen con este riff hasta que termine la canción
Suggest correction
Give kudos to tab author, rate the tab!
1 2 3 4 5
comments
print report bad tab
guest
You may want to rate the tab now too:
select rating
Wanna post a correction for this tab? Suggest correction