Oops, an error
Loading. Please wait.

Bendita Tu Luz Tab

version 1
version 1

Interactive

89,407 views 93 this week
3 commentsread comments
1 2 3 4 5
x 12
add to favorites
launch autoscroll
font size
0
reset
how to read this tab
guitar tuner
Autoscroll
slow
fast
+/-
esc
set tempo
stop
Help us to improve Ultimate-Guitar.com Take our survey!
×
Author
Difficulty
intermediate
[Intro]

    G                      D/F#             Em7                 C     D7
e|----------------|----------------|----------------|----------------|
B|-----3----------|----3-----------|----3-----------|-----------1----|
G|-------0--------|------2---------|------0---------|-----0-----2---0|
D|---0------------|--0-------------|--0-------------|---0-2---4------|
A|----------------|----------------|--------------2-|-3-----5--------|
E|-3--------------|2---------------|0---------------|----------------|

    G                      D/F#             Em7                 C     D7
e|----------------|----------------|----------------|----------------|
B|-----3----------|----3-----------|------3---------|-----------1----|
G|-------0--------|------2---------|------0---------|-----0-----2---0|
D|---0------------|--0-------------|----4-----------|---0-2---4------|
A|----------------|----------------|--2-------------|-3-----5--------|
E|-3--------------|2---------------|0---------------|----------------|


[Verse 1]                        Arpegios:  (A) (B) (C)

(A)     G       D/F#        Em7      C        D7
        Bendito el lugar y el motivo de estar ahí
(B)     G       D/F#         Em7     C  D7
        Bendita la coincidencia

(a partir de ahora entra otra guitarra, que rasguea los acordes)

(C)     G           D/F#     Em7     C      D7
        Bendito el reloj que nos puso puntual ahí
        G       D/F#          Em7    C  D7
        Bendita sea tu presencia

         G              D/F#             Em7             C     D7
e|     e|----------------|----------------|----------------|----------------|
B|     A|-------3--------|------3---------|------3---------|-----------1----|
G|(A)  D|-----0----------|----2-----------|----0-----------|-----0-----2---0|
D|     G|---0------------|--0-------------|--0-------------|---0-2---4------|
A|     B|----------------|----------------|----------------|-3-----5--------|
E|     E|-3--------------|2---------------|0---------------|----------------|

         G              D/F#             Em7             C     D7
e|     e|----------------|----------------|----------0-----|----------------|
B|     A|-------3--------|------3---------|------3-----3---|-----------1----|
G|(B)  D|-----0---0------|----2---2-------|----0-0-------0-|-----0-----2---0|
D|     G|---0------------|--0-------------|--0-------------|---0-2---4------|
A|     B|----------------|----------------|----------------|-3-----5--------|
E|     E|-3--------------|2---------------|0---------------|----------------|

         G              D/F#             Em7             C     D7
e|     e|-------3--------|----------2-----|----------0-----|----------------|
B|     A|-------3--------|------3-----3---|------3-----3---|-----------1----|
G|(C)  D|-----0---0------|----2-2-------2-|----0-0-------0-|-----0-----2---0|
D|     G|---0------------|--0-------------|--0-------------|---0-2---4------|
A|     B|----------------|----------------|----------------|-3-----5--------|
E|     E|-3--------------|2---------------|0---------------|----------------|


[Pre-Chorus]  (Entra batería, demás instrumentos y la voz de Juan L.Guerra)

        (Acordes al aire)

Em       D             C      G      D
Bendito Dios por encontrarnos en el camino
Em             D        C         D7
Y de quitarme esta soledad de mi destino


[Chorus]

            G   D/F#
Bendita la luz
            Am          C
Bendita la luz de tu mirada (bis)
    D        G
...desde el alma


[Solo 1]

 G                 D/F#               Em7               C
e|----------------|----------------|--3---3-3-5---5-|5---3-5-7---8---|
B|---------------8|----7..---------|----------------|----------------|
G|-----------4/7—-|7---------------|--4---4-4-5---5-|5---4-5-7---9---|
D|----------------|--9-------------|----------------|----------------|
A|----------------|----------------|----------------|----------------|
E|----------------|----------------|----------------|----------------|

 G                 D/F#             Em7              C               G
e|--7.----78107810|10/12\10----7-5-|5---7-3---5-2---|----3---2-------|------|
B|----------------|------------8-7-|7---8-5---7-3---|5-5-5---3---5---|3-----|
G|-7.-----------—-|----------7-----|----------------|5-5---2-----5---|0-----|
D|----------------|----------------|----------------|----------------|------|
A|----------------|----------------|----------------|----------------|------|
E|----------------|----------------|----------------|----------------|------|


[Verse 2]

G              D/F#
Benditos ojos que me esquivaban
Em           D
simulaban desdén, que me ignoraban
G                D/F#
Y de repente sostienes la mirada
Em           D
Di ran diri da ran di ri rin…


[Pre-Chorus]

Em(7º)  D(5º)         C(3º)   G      D
Bendito Dios por encontrarnos en el camino
Em (7º)         D(5º)   C(3º)       D7                   G
Y de quitarme esta soledad de mi destino  (fill)

                                     e|---7--78-7810/1210|---|
                                     A|-810-10-----------|---|
                                     D|------------------|---|
                                     G|------------------|---|
                                     B|------------------|---|
                                     E|------------------|---|


[Chorus]

            G   D/F#
Bendita la luz
            Am          C                   D
Bendita la luz de tu mirada  (bis)      ... oh


[Bridge]

G                       D/F#
Gloria divina de esta suerte, del buen tino
F                           Am
De encontrarte justo ahí en medio del camino
D/F#                                 G         Em         Em/F#
Gloria al cielo de encontrarte ahora,  llevarte mi soledad
      Am/F#          Em/G  Am/F#             G
y coincidir en mi destino,    en el mismo destino... Epale!  (2º Solo)
Arpegios del Puente:

    G  (x2)          D/F#                              F (x2)            Am
e|----------------|----------------|----------------|----------------|----------------|
B|-------3--------|------3---------|------3-----3---|------1---------|------1---------|
G|-----0-----0----|----2-----2-----|----2-----2---2-|----2---2-------|----2-----2-----|
D|---0------------|--0-------------|--0-------------|--3-------------|--2---------2---|
A|----------------|----------------|----------------|----------------|0---------------|
E|-3--------------|2---------------|2---------------|1---------------|----------------|

    Am             D/F#                                 G                Em
e|----------------|-------2--------|-------2--------|----------------|----------------|
B|-------1--------|-----3-----3----|-----3-----3----|------0---------|------0---------|
G|-----2----------|---2------------|---2------------|----0-----0-----|----0-----0-----|
D|---2---------2--|-0--------------|-0--------------|--0-------------|--2-------------|
A|-0---------0---0|----------------|----------------|----------------|----------------|
E|----------------|(2)-------------|----------------|3---------------|0---------------|

    Em/F#            Am/F#           Em/G                   Am/F#
e|----------------|----------------|----------------|----------------|
A|-------0--------|------1---------|------0---------|------1---------|
D|-----0-----0----|----2-----2-----|----0-----0-----|----2-----2-----|
G|---2------------|--2-------------|--2-------------|--2-------------|
B|----------------|----------------|----------------|----------------|
E|-2--------------|2---------------|3---------------|2---------------|


[Solo 2]

    G                D/F#             Am              C            D
e|------------------|----------------|---------5---5--|3---2---0-------|
B|------------------|----------------|-----587--------|------------3---|
G|-----0-4-7—5-4-5-5|p4--------------|--457------5---4|--2---0---------|
D|---0--------------|----7-7---------|-7--------------|----------4-----|
A|------------------|----------------|----------------|----------------|
E|------------------|----------------|----------------|----------------|

    G              D/F#            Am               C              D
e|---------7---5-3|3-2--2-/-5------|----------5---57|--578p75--------|
B|---8-7-8--------|----------------|--578---78---8--|-8------8p75----|
G|---7-5-7-7---5-4|4-2--2—/-5------|----------------|------------7---|
D|----------------|----------------|----------------|----------------|
A|----------------|----------------|----------------|----------------|
E|----------------|----------------|----------------|----------------|


[Chorus]
                (Y el final, con los mismos acordes del coro G  D/F# Am C)

Bendita la luz
Bendita la luz de tu mirada (bis)

Bendita mirada oh oh
Bendita mirada desde el alma

Tu mirada oh oh
Bendita bendita bendita mirada
Bendita tu alma y bendita tu luz

Tu mirada oh oh
Oh oh, te digo es tan bendita tu luz
Amor, amor…

Tu mirada oh oh
Bendito el reloj y bendito el lugar
Benditos tus besos cerquita del mar

Tu mirada oh oh
Amor, amor,
Que bendita tu mirada
tu mirada amor.


Espero que la disfruten. Es mi primera aportación de tab en esta página, y he intentado 
lo más completa posible.
Saludos, Pedro.



************************************

| (n)  Ghost note
| p    Pull-off
| /    Slide up
| \    Slide down

************************************
Suggest correction
comments
print report bad tab
3 comments total.
0 reply
shredhed 10 Dec 23, 2006 01:55 AM

dude its mana, not man

+1 reply
nane21 250 Nov 18, 2007 08:53 PM

muy bueno, suena lindo en la guitarra.. por fin un habla hispana, ejej

0 reply
qwe 41 Sep 19, 2010 02:57 PM

stupid idoits ite E A D G B e not e B G D A E

guest
You may want to rate the tab now too:
select rating
Wanna post a correction for this tab? Suggest correction