Oops, an error
Loading. Please wait.

Clavado En Un Bar Tab

version 1
version 1

Solo

Whole song

Interactive

13,373 views 6 this week
no commentswrite comment
1 2 3 4 5
accurate
x 3
add to favorites
launch autoscroll
font size
0
reset
how to read this tab
guitar tuner
Autoscroll
slow
fast
+/-
esc
set tempo
stop
Help us to improve Ultimate-Guitar.com Take our survey!
×
Author
Difficulty
intermediate
Mana 

Clavado en un bar



e|----------9-11~-------9-11-12-14-14-12p11-9~~~-|
B|-------12----------12--------------------------|
G|--9s11----------11-----------------------------|
D|-----------------------------------------------|
A|-----------------------------------------------|
E|-----------------------------------------------|

|-------------------------------9-11-14-16~-19-16~--|
|-11-12-9~--9h11-12-9~--9h11-12---------------------|
|---------------------------------------------------|
|---------------------------------------------------|
|---------------------------------------------------|
|---------------------------------------------------|

|--16b(17)r-p14s12-11----------------------------|
|---------------------14-12-11-------------------|
|------------------------------13-13p11h13p11h13-|
|------------------------------------------------|
|------------------------------------------------|
|------------------------------------------------|

|-10h11-14-10h11-14-10h11-14-10h11-14-14s11-9~----|
|-------------------------------------------------|
|-------------------------------------------------|
|-------------------------------------------------|
|-------------------------------------------------|
|-------------------------------------------------|

|-7p6h7--9p6h7--9p6h7--9p6h7--6-7-6-4-4~-----2-----|
|----------------------------------------------4s2-|
|--------------------------------------------------|
|--------------------------------------------------|
|--------------------------------------------------|
|--------------------------------------------------|
Suggest correction
Give kudos to tab author, rate the tab!
1 2 3 4 5
comments
print report bad tab
guest
You may want to rate the tab now too:
select rating
Please do not post tabs as comments. Select "correction" instead!