Oops, an error
Loading. Please wait.

Clavado En Un Bar Tab

version 1
version 1

Whole song

Interactive

82,058 views 78 this week
5 commentsread comments
1 2 3 4 5
x 9
add to favorites
launch autoscroll
font size
0
reset
how to read this tab
guitar tuner
Autoscroll
slow
fast
+/-
esc
set tempo
stop
Help us to improve Ultimate-Guitar.com Take our survey!
×
Author
[Intro]

Oh yeah!

    B   E    B   E      F#
e|--7--7-7---7--7-7----2-2-|
B|--7--7-7---7--7-7----2-2-|
G|--8--9-9---8--9-9----3-3-|
D|--9--9-9---9--9-9----4-4-|
A|--9--7-7---9--7-7----4-4-|
E|--7--7-7---7--7-7----2-2-|

La ultima vez se toca asi:

    B   E    B   E          B  E  B  G#
e|--7--7-7---7--7-7--------7--7--7---4-|
B|--7--7-7---7--7-7--------7--7--7---4-|
G|--8--9-9---8--9-9--------8--8--9---5-|
D|--9--9-9---9--9-9--------9--9--9---6-|
A|--9--7-7---9--7-7--------9--9--7---6-|
E|--7--7-7---7--7-7--------7--7--7---4-|

   B                    F#
Aqui me tiene bien clavado
                                G#m
Son tantas las penas en un bar
                    E
Brindando por tu amor

[Riff A]

e|---------------------|
B|--------------6------|
G|----5--5\7--7--------|
D|---------------------|
A|---------------------|
E|---------------------|

  B                      F#m
Aqui me tiene abandonado
                            G#m
Bebiendo tequila pa'olvidar
                           E
Y sacudirme hacia el dolor

[Bridge]

B    F#        G#m
 Donde estas bendita?
B    F#        G#m
 Donde te has metido?
D#                E#
Abre un poco el corazon
D#            E#
Deja amarte corazon
D#            E#     F#
Ven y sacame de este bar

[Chorus]

         B
Estoy clavado,
         D#m  F#m F
Estoy herido,
G#m                  E
Estoy ahogado en un bar
       B
Desesperado,
           D#m    F#m F
En el olvido amor,
G#m                  E
Estoy ahogado en un bar    Hey!

[Intro]

  B                      F#
Se que te gustan demasiados
                         G#m
Que te pretende cantidad
                         E
Pero eso no es felicidad
   B                    F#
Y mi amor nunca se raja
                                     G#m
Y mi amor nunca jamas te va a fallar
           E
Nunca jamas

[Bridge]

[Chorus]

[Chorus 2]
           B
Voy desesperado,
            D#m
Voy en el olvido,
G#m                  E
Estoy ahogado en un bar

G#m               E
Dejate querer amor
              B
Quiero ser tu todo
             D#m
Y tu corazon
G#m                 E
Ven a rescatarme amor
                  B
Yo quiero ser tu sol
                 F#m
Yo quiero ser tu mar    Oooohhh!

[Solo]

e|--------------------------------------------14-12^11----------------|
B|---------12----14--16--------12---14--16-17----------14~~-----------|
G|---10\11----11---11-----10\11---11--11------------------------------|
D|--------------------------------------------------------------------|
A|--------------------------------------------------------------------|
E|--------------------------------------------------------------------|

                           En esta parte son ligados muy rapido.
e|-----------------------|-----------------------17-16^---------------|
B|-----------------------|--------------14-15-17~---------------------|
G|-13\15--16-13-15-16-13-|------13-14-16------------------------------|
D|-----------------------|14-16---------------------------------------|
A|-----------------------|--------------------------------------------|
E|-----------------------|--------------------------------------------|

  Y siguen los ligados

e|-16-16-17-16-14----------------------17-16-14--17-16-14--17-16-14--17-16-14-|
B|---------------17-16-14------------17--------17--------17--------17---------|
G|-----------------------16-15-13---------------------------------------------|
D|--------------------------------16------------------------------------------|
A|----------------------------------------------------------------------------|
E|----------------------------------------------------------------------------|

e|---17-16-14-17-16-14-17-16-14-----------------------------------------------|
B|-17--------------------------17-16-14-17-16-14-17-16-14---------------------|
G|-------------------------------------------------------16\18-15\16-18-16-15-|
D|----------------------------------------------------------------------------|
A|----------------------------------------------------------------------------|
E|----------------------------------------------------------------------------|

e|-----------------------------------------------------------------|
B|-----------------------------------------------------------------|
G|-16-18-16-15-16--18-16-15-16--18-16-15-16~-15-16-15-13~--13\O----|
D|-----------------------------------------------------------------|
A|-----------------------------------------------------------------|
E|-----------------------------------------------------------------|


  B                   F#
Aqui me tienen embriagado
                          G#m
Llorando de rabia en un bar
                    E
Brindando por su amor

[Riff A]

   B                   F#
Aqui me tiene bien clavado
                             G#m
Tomando tequila pa'olvidar todo
                 E
No es justo amor

[Chorus 2]

[Final]

    B   E    B   E      F#
e|--7--7-7---7--7-7----2--2---|
B|--7--7-7---7--7-7----2--2---|
G|--8--9-9---8--9-9----3--3---|
D|--9--9-9---9--9-9----4--4---|
A|--9--7-7---9--7-7----4--4---|
E|--7--7-7---7--7-7----2--2---|

   B   E    B   E     F#     B   B B
e|--7--7-7---7--7-7---2--2---7---7-7--|
B|--7--7-7---7--7-7---2--2---7---7-7--|
G|--8--9-9---8--9-9---3--3---8---8-8--|
D|--9--9-9---9--9-9---4--4---9---9-9--|
A|--9--7-7---9--7-7---4--4---9---9-9--|
E|--7--7-7---7--7-7---2--2---7---7-7--|



************************************

| \  Slide down
| ~  Vibrato

************************************
Suggest correction
comments
print report bad tab
5 comments total. Showing first comments.
0 reply
jose763 608 Jul 17, 2006 01:22 PM

E# doesn't exist and the solo is wrong

-1 reply
jarg1994 10 Aug 09, 2008 11:15 AM

are you nuts it is not like that

0 reply
james555 232 Dec 22, 2009 03:33 PM

oie no pusiste el D# ni el m pero d ahi todo sta perfecto

guest
You may want to rate the tab now too:
select rating
Wanna post a correction for this tab? Suggest correction