Oops, an error
Loading. Please wait.

Como Dueles En Los Labios Tab

version 1
version 1
6,445 views 3 this week
1 commentread comment
1 2 3 4 5
please rate
add to favorites
launch autoscroll
font size
0
reset
how to read this tab
guitar tuner
Autoscroll
slow
fast
+/-
esc
set tempo
stop
Help us to improve Ultimate-Guitar.com Take our survey!
×
Author
INTRO >>>

     __ G ___       ____D/F#____
    |	     |     |		|

e|------------------------------------------------*---
b|---3--3--3----5~~3----3-----3-------------------*---
g|----0--0--0--------2-----2-----2---5~4~~--------*---
D|-----------------4----4-----4-------------------*---
A|------------------------------------------------*---
E|---3--3--3--------------------------------------*---

				       play it 4 times

chords>
 	G    > 300023
	D/F# > 032400


note >>> this riff is played all along the song with some little variations.
comments or others >>> charlyghost@hotmail.com
Suggest correction
Give kudos to tab author, rate the tab!
1 2 3 4 5
comments
print report bad tab
1 comment total.
0 reply
serrey390 45 wrote on January 8 2003, 12:00 am

e-------------0-------------------|
B-3---3---3-----3-3---3---3---1-0-|
G---0---0---0-------2---2---2-----|
D---------------------------------|
A---------------------------------|
E-3---------------2---------------|

You play that four times. The chords are G, (I preffer G5) and D/F#. The chord diagrams are below.

G D/F#

e-3 e-x
B-0 B-3
G-0 G-2
D-0 D-0
A-2 A-0
E-3 E-2
E-3 E-2

guest
You may want to rate the tab now too:
select rating
Wanna post a correction for this tab? Suggest correction