Oops, an error
Loading. Please wait.

Como Te Deseo Tab

version 1
version 1

Whole song

Interactive

6,144 views 9 this week
no commentswrite comment
1 2 3 4 5
please rate
add to favorites
launch autoscroll
font size
0
reset
how to read this tab
guitar tuner
Autoscroll
slow
fast
+/-
esc
set tempo
stop
Help us to improve Ultimate-Guitar.com Take our survey!
×
Author
ya1000 46
INTRO:
e) ---0----0-----0---0----------------------0-|
b) ---------------------------------------0---|
g) --2---2-----2---2-------2---2--4-----1-----|
d) --------------------------0----------------|
a) -----------------------------------x-------|
e) -------------------------------------------|

Eso se repite dos veces y después cuando dice:
'mariposas bailan en mi pecho....' en ese mometo va
esto

VERSOS:

e) ------------------0-----------------------0-----|
b) ------3-------------0-------------3---------0---|
g) ---------4------------0---------2---2---------2-|
d) ---4-------------------------0------------------|
a) -2-------------------------------------0--------|
e) --------------3---------------------------------|

Esto se rpite varias veces

CORO:
e) -------------------------------x—2-2-x-3-3—x-x-0-0-|
b) --------3------------3-3-------x—3-3-x-3—3-x-x-2-2-|
g) --2-2-4---4----2-2-4-----4-----x—2-2-x-4-4—x-x-2-2-|
d) ---------------------------------------------------|
a) ---------------------------------------------------|
e) ---------------------------------------------------|

Eso se repite 4 veces, despues van las notas del verso,
despues las del coro, de ahi las del verso, seguidas
por las notas del intro, despues, las notas del ultimo
coro se suben 2 trastes, pero de cualquier forma
ahi les va:

e)-----------------------------x-4-4-x-5-5-x-x-2-2-|
b)--------5----------5-5-------x-5-5-x-5-5-x-x-4-4-|
g)--4-4-6--6---4-4-6-----6-----x-4-4-x-6-6-x-x-4-4-|
d)-------------------------------------------------|
a)-------------------------------------------------|
e)-------------------------------------------------|

Finalmente estas son las ultimas notas de la cancion:

e)-7-7-7-7-7-7----------7-7-7-7-7-7---------|
b)-9-9-9-9-9-9-9-9-7-9--9-9-9-9-9-9-9-9-7-5-|
g)-------------9-9-8-9--------------9-9-8-6-|
d)------------------------------------------|
a)------------------------------------------|
e)------------------------------------------|

e)-7-7-7-7-7-7----------7-7-7-7-9-9-------|
b)-9-9-9-9-9-9-9-9-7-9--9-9-9-9-9-9-7-7-9-|
g)-------------9-9-8-9--------------8-8-9-|
d)----------------------------------------|
a)----------------------------------------|
e)----------------------------------------|

yamil sandoval
Suggest correction
What's this?
You can suggest a correction to this tab. Community and Mods will review your correction and vote to approve or reject it.
comments
We did not receive enough feedback on this tab! Please rate:
print report bad tab
1 2 3 4 5
guest
You may want to rate the tab now too:
select rating
Please do not post tabs as comments. Select "correction" instead!