Oops, an error
Loading. Please wait.

Contra Todo Tab

version 1
version 1

Whole song

545 views 1 this week
no commentswrite comment
1 2 3 4 5
2 more votes to show rating
add to favorites
launch autoscroll
font size
0
reset
how to read this tab
guitar tuner
Autoscroll
slow
fast
+/-
esc
set tempo
stop
Help us to improve Ultimate-Guitar.com Take our survey!
×
Author
Difficulty
novice
Intro de bateria.

Intro
e|---------------------------------------------------|
B|------9-----------------9--9-----------------------|
G|---------8--9----------------8---9-----------------|
D|------------------------------------9p7------------|
A|---------------------------------------------------|
E|---------------------------------------------------|

e|---------------------------------------------------|
B|---9------------------9------------9--9------------|
G|------9------------------8--9-----------8--9-------|
D|---------7--7--7--7--------------------------------|
A|---------------------------------------------------|
E|---------------------------------------------------|

e|---------------------------------------------------|
B|------------7--------------------------------------|
G|---------------9-----------------8--9---------9----|
D|--9p7--------------7----------9------------9-------|
A|---------------------------------------------------|
E|---------------------------------------------------|

Acordes que acompañan al intro: E - C# - E - C#

Unos te desean, te quieren usar
E                   C#
otros son presumidos te quieren apantallar
F#m              A
no soy tan vacío tu no me puedes comprar

E - C# - A

Unos te critican con maldad
E                    C#
otros son prepotentes te quieren intimidar
F#m               A
yo no tengo miedo no me vas a controlar.

E - C# - A

(coro)
E                       C#
Jamás me daré por vencido
       A                  C#
contra todo que sea nocivo
      F#m
si no vives por algo,
   A                    C# D E
la vida no tiene sentido.

e|---------------------------------------------------|
B|------9-----------------9--9-----------------------|
G|---------8--9----------------8---9-----------------|
D|------------------------------------9p7------------|
A|---------------------------------------------------|
E|---------------------------------------------------|

e|---------------------------------------------------|
B|---9------------------9------------9--9------------|
G|------9------------------8--9-----------8--9-------|
D|---------7--7--7--7--------------------------------|
A|---------------------------------------------------|
E|---------------------------------------------------|

e|---------------------------------------------------|
B|------------7--------------------------------------|
G|---------------9-----------------8--9---------9----|
D|--9p7--------------7----------9------------9-------|
A|---------------------------------------------------|
E|---------------------------------------------------|

Acordes que acompañan  E - C# - F#m - C#

E                 C#
Algunos te quieren crucificar
             E               C#            F#m
otros tienen envidia quieren verte fracasar
                  A                  E          C#    A
no seas tan ardido se te va a regresaaar, regresaaaar.

E                       C#
Jamás me daré por vencido
          A               C#
contra todo que sea nocivo
      F#m
si no vives por algo,
   A                   C# D E
la vida no tiene sentido.

(estribillo)

B - B - B - B

B          A        B          A
Violencia, racismo, blasfemia, nihilismo
B                      A
el mundo está confundido.

(Solo de guitarra)  E C# F#m A

Jamás me daré por vencido

te lo juro mientras siga vivo
                                               E  C# A
mi dignidad es mi única arma contra el enemigoooooo.

E                       C#
Jamás me daré por vencido
          A               C#
contra todo que sea nocivo
      F#m
si no vives por algo,
   A                   C# D E
la vida no tiene sentido.

(final)
e|---------------------------------------------------|
B|------9-----------------9--9-----------------------|
G|---------8--9----------------8---9-----------------|
D|------------------------------------9p7------------|
A|---------------------------------------------------|
E|---------------------------------------------------|

e|---------------------------------------------------|
B|---9------------------9------------9--9------------|
G|------9------------------8--9-----------8--9-------|
D|---------7--7--7--7--------------------------------|
A|---------------------------------------------------|
E|---------------------------------------------------|

e|---------------------------------------------------|
B|------------7--------------------------------------|
G|---------------9-----------------8--9---------9----|
D|--9p7--------------7----------9------------9-------|
A|---------------------------------------------------|
E|---------------------------------------------------|

Acordes que acompañan  E - C# - F#m - C#

     EADGBe
C#   x46664
D    x57775
E    x79997
F#m  244222
A    577655
B    799877
 Bueno ahi esta la cancion esta sacada 100% a oido esta todo detallado
menos el solo de guitarra q no esta
Suggest correction
Give kudos to tab author, rate the tab!
1 2 3 4 5
comments
print report bad tab
guest
You may want to rate the tab now too:
select rating
Wanna post a correction for this tab? Suggest correction