Oops, an error
Loading. Please wait.

Dejame Entrar Chords

version 1
version 1

Whole song

Interactive

6,445 views 18 this week
no commentswrite comment
1 2 3 4 5
accurate
x 3
add to favorites
launch autoscroll
font size
0
reset
transpose
0
reset
- display chords -
guitar tuner
Tab Pro tools
  • play this tab
  • loop segment
  • change instrument
  • show fretboard
  • metronome
Autoscroll
slow
fast
+/-
esc
set tempo
stop
Contributor
Difficulty
intermediate
INTRO:
e|------------------------------xx-8-x-7--5---------------------------------xx-8-x-10--5--|
B|------------------------------xx-8-x-7--5---------------------------------xx-8-x-10--5--|
G|------------------------------xx-9-x-8--5---------------------------------xx-9-x-11--5--|
D|-7--7--7-7--10-7-10------7--7-------------xx--7--7--7-7--10-7-10------7--7--------------|
A|-7--7--7-7--10-7-10--x-x-7--7-------------xx--7--7--7-7--10-7-10--x-x-7--7--------------|
E|-5--5----------------x-x-5--5-------------xx--5--5----------------x-x-5--5--------------|



1st Verse: 
Am               
 Dejame entrar en la alberca de tus ojos
G
 Dejame entrar en la alberca de tu ombligo
D                  D D D D             Am   
 Yo no te obligo nena    Dejame entrar 

2nd Verse: 
Am
 Dejame entrar en toditos tus rincones
G
 Dejame entrar en toditas tus pasiones
D                      D D D D            Am   
 Dejame entrar a tu alma    Dejame entrar

3rd Verse:
Am          
 Quiero vivir en tus mundos ser tu dueño
G
 Quiero vivir en la casa de tus sueños
D                     D D D D            Am    
 Yo quiero todo contigo    Dejame entrar

4th Verse:
Am
 Dicen que soy un hippie indecente
G
 No me importa lo que diga la gente
D                  DDDD           Am    
 Solo me importas tú   Dejame entrar


Chorus:
e|-------------------------------------------------------------------------|
B|----------------------------------0-----------------------------------0--|
G|--2-2--2-2-0-2-------2-2--2-2-0-2------2-2--2-2-0-2------2-2--2-2-0-2----|
D|---------------2------------------------------------2--------------------|
A|-------------------------------------------------------------------------|
E|-------------------------------------------------------------------------|

         C     D                  Am  
 Deja clavarme ya en la alberca de tus ojos

 Deja clavarme ya en la alberca de tu ombligo

 Deja clavarme ya en la alberca de tu oído
          C     D         Am   
 Deja clavarme ya  Y dejame entrar

Solo::

e|--------------------xx-8-x-7--5---------------------xx-8-x-7--5--|
B|--------------------xx-8-x-7--5---------------------xx-8-x-7--5--|
G|--------------------xx-9-x-8--5---------------------xx-9-x-8--5--|
D|-7-xx-7-7-xx-7-7-xx--------------7-xx-7-7-xx-7-7-xx--------------|X2
A|-7-xx-7-7-xx-7-7-xx--------------7-xx-7-7-xx-7-7-xx--------------|
E|-5-xx-5-5-xx-5-5-xx--------------5-xx-5-5-xx-5-5-xx--------------|
     



5th Verse:
Am               
 Dejame entrar en la alberca de tus ojos
G
 Dejame entrar en la alberca de tu ombligo
D                  DDDD             Am   
 Yo no te obligo nena    Dejame entrar 

6th Verse:
Am          
 Quiero vivir en tus mundos ser tu dueño
G
 Quiero vivir en la casa de tus sueños
D                     DDDD            Am    
 Yo quiero todo contigo    Dejame entrar

2nd Chorus:

 Deja clavarme ya en la alberca de tus ojos

 Deja clavarme ya en la alberca de tu ombligo

 Deja clavarme ya en la alberca de tu oído
          C     D         Am   
 Deja clavarme ya  Y dejame entrar

Well,, hope u like it! (:
comments
We did not receive enough feedback on this tab! Please rate:
print report bad tab
1 2 3 4 5
I want to post or [tab]
guest
You may want to rate the tab now too:
select rating
Please do not post tabs as comments. Select "correction" instead!