Oops, an error
Loading. Please wait.

En El Muelle De San Blas Tab

version 2
version 2
32,606 views 3 this week
no commentswrite comment
1 2 3 4 5
poor
x 1
add to favorites
launch autoscroll
font size
0
reset
how to read this tab
guitar tuner
Tab Pro tools
  • play this tab
  • loop segment
  • change instrument
  • show fretboard
  • metronome
×
Best way to learn
"En El Muelle De San Blas"
Autoscroll
slow
fast
+/-
esc
set tempo
stop
p-------------------------------------q
|  Grupo: Mana                        |
|  Canción: En el muelle de San Blas  |
|  Álbum: Sueños líquidos (Unplugged) |
|  Tabs por: Miquel Martín            |
b-------------------------------------d


Intro

Todo subido al 2º traste


    Em7                A                   D5
E/------------0------------------0------------------------------------/
B/--------3-------3----------2-------2---------------3----------------/
G/------0---0---0---0------2---2---2---2---------2-------2------------/
D/---------------------------------------------0---0---0---0----------/
A/---------------------0-------------------0--------------------------/
E/--0-----------------------------------------------------------------/

    G             D5
E/--------------------------------------------------------------------/
B/------------0---2---------------------------------------------------/
G/--------0---------0-------------------------------------------------/
D/------0---0---0-----------------------------------------------------/
A/--------------------------------------------------------------------/
E/--3-----------------------------------------------------------------/



    Em                      A                   D5
E/:-----------0-----------------------0-----------------------------------/
B/:-------0-------3---------------2-------2---------------3---------------/
G/:-----0---0---0---0-----------2---2---2---2---------2-------2-----------/
D/:-------------------------------------------------0---0---0---0---------/
A/:-------------------------0-------------------0-------------------------/
E/:-0---------------------------------------------------------------------/
  :           Sola en el olvido                           Sola con su esp




    G             D5
E/---------------------------:/
B/------------0---2----------:/
G/--------0---------0--------:/
D/------0---0---0------------:/
A/---------------------------:/
E/--3------------------------:/
    íritu                    :

(Para el coro ídem)




Para el resto de la canción


E/------------7------------------5-------------------5----------------/
B/--------8-------8----------5-------5-----------5-------5------------/
G/------9---9---9---9------6---6---6---6-------7---7---7---7----------/
D/-----------------------------------------0--------------------------/
A/---------------------0----------------------------------------------/
E/--0-----------------------------------------------------------------/

E/------------3---2---------------------------------------------------/
B/--------3---------3-------------------------------------------------/
G/------4---4---4-----------------------------------------------------/
D/--------------------------------------------------------------------/
A/--------------------------------------------------------------------/
E/--3-----------------------------------------------------------------/




 Em                   A                    D                          G
   Ella Despidio a su amor el partio en un barco en el muelle de San Blas
 Em                   A                    D                          G
   El juro y que volveria y empapada en llanto ella juro que esperaria
 Em                   A                    D                      G
   Miles de lunas pasaron y siempre ella estaba en el muelle esperando
 Em                   A                    D                      G
   Muchas tardes se anidaron se anidaron en su pelo y en sus labios.
 Em                   A                    D                         G
   Llevaba el mismo vestido y por si el volviera no se fuera a equivocar
 Em                   A                       D                G
   Los cangrejos le mordian sus ropajes, su tristeza y su ilusion
 Em                     A                    D                 G
   Y el tiempo se escurrio y sus ojos se le llenaron de amaneceres
 Em                   A                    D               G
   Y del mar se enamoro y su cuerpo se enrraizo en el muelle.
 
 
              D                 A      D                   A
 Coro     Sola, sola, en el olvido. Sola, sola, con su espiritu
              D                 A     G A                       D
          Sola, sola, con su amor. Sola, en el muelle de San Blas.
 
 
 



Em                   A                 D                       G
   Su cabello se blanqueo pero ningun barco a su amor le devolvia
 Em                    A                     D                     G
   Y en el pueblo le decian, le decian la loca del muelle de San Blas
 Em                  A                    D              G
   Y una tarde de abril la trataron transladar al manicomio
 Em                    A                  D               G
   Nadie la pudo arrancar y del mar nunca jamas la separaron.
 
 
      Coro
 
     D                    A       D                  A
      Sola. sola en el olvido. Sola, sola con su espiritu.
     D                    A              G  A
      Sola, sola con el sol y el mar. Sola
     D                    A       D                  A
      Sola, sola en el olvido, Sola, sola con su espiritu.

     D                    A             G  A                     D
      Sola, sola con su amor el mar. Sola, en el muelle de San Blas.
             D                   G
      Se quedo, se quedo, sola, sola.
             D                             G
      Se quedo, se quedo, con el sol y con el mar
             D
      Se quedo ahi, se quedo hasta el fin.
             G                                  D
      Se quedo ahi, se quedo, en el muelle de San Blas
         G
      Sola, Sola se quedo.


Qué pasada de canción. A disfrutarla!!
comments
We did not receive enough feedback on this tab! Please rate:
print report bad tab
1 2 3 4 5
I want to post or [tab]
guest
You may want to rate the tab now too:
select rating
Please do not post tabs as comments. Select "correction" instead!