Oops, an error
Loading. Please wait.

Hasta Que Te Conocí Tab

version 1
version 1

Whole song

15,555 views 33 this week
no commentswrite comment
1 2 3 4 5
excellent!
x 5
add to favorites
launch autoscroll
font size
0
reset
how to read this tab
guitar tuner
Autoscroll
slow
fast
+/-
esc
set tempo
stop
Help us to improve Ultimate-Guitar.com Take our survey!
×
Author
Difficulty
novice
Intro:

e----5-------5-------5-------5------3---/
B-----------------------------------3---/
G--7---7---6---6---5---5---4---4----3---/
D-----------------------------------5---/
A-----------------------------------5---/
E-----------------------------------3---/

e-3--5--6--5--3-------------------------/
B---------------6-6/5-5--3---3/5--------/
G--------------------------5------------/
D---------------------------------------/
A---------------------------------------/
E---------------------------------------/


Dm
No sabia, de tristezas, ni de lagrimas
      Dm                     Gm
Ni nada, que me hicieran llorar
C
Yo sabia de cariño, de ternura

Porque a mí desde pequeño
                F   A#
Eso me enseño mama

Riff 1:

e--------5--------6-----------------------/
B---5/7------5/7--------------------------/
------------------------------------------/
------------------------------------------/
------------------------------------------/
------------------------------------------/

Gm   A
eso me enseño mama

Riff 2:

e-----------------------------------------/
B----8--8--11--10-------------------------/
G----9--9--12--11-------------------------/
------------------------------------------/
------------------------------------------/
------------------------------------------/

Dm
Eso y muchas cosas mas

Riff 3:

e------------------------------------------------------/
B------------------------------------------------------/
G---7/9--10--12--10--12--10--12/14--12-10-9-12-10-9----/
-------------------------------------------------------/
-------------------------------------------------------/
-------------------------------------------------------/

  Gm   A
Yo jamás sufrí

Riff 4:

e------------------------------------------------------/
B------------------------------------------------------/
G----------7/10--7h9--6--7/5---------------------------/
D---/5--8----------------------------------------------/
-------------------------------------------------------/
-------------------------------------------------------/

 Dm
yo jamás llore
              Gm  A
Yo era muy feliz

Riff 5:

e------------------------------------------------------/
B---------------------------18--18---------------------/
G---12--14--15--14--14--15----------15--14--12/14------/
D------------------------------------------------------/
-------------------------------------------------------/
-------------------------------------------------------/

Dm
yo vivía muy bien

Riff 6:

e----1-----1---------1--------------------------------/
B-------3------------3--------------------------------/
G-------------2------2--------------------------------/
D--------------------0--------------------------------/
------------------------------------------------------/
------------------------------------------------------/


(CORO)
                 Gm C
Hasta que te conocí
                 F   Dm
Vi la vida con dolor
              Gm      A#
No te miento fui feliz
                      A
Aunque con muy poco amor
Dm                 Gm
Y muy tarde comprendí
C                 F    A#
Que no te debía amar
             Gm
Porque ahora pienso en ti
          A       Dm
Mas que ayer, mucho más

Verso 2:
Dm                     Dm
Yo vivía tan distinto, algo hermoso
             D
Algo divino
                Gm
lleno de felicidad

Riff 7:

e----------------------------------/
B----------11--10--8--6--5---------/
G-----/10--------------------------/
D----------------------------------/
-----------------------------------/
-----------------------------------/

C                                      C
Yo sabia de alegrías, la belleza de la vida
               F   A#
Pero no de soledad

Riff 8:

e-----5-----5-----------------/
B-----------------------------/
G--------7--------------------/
------------------------------/
------------------------------/
------------------------------/
Riff 9:

e-----6-----6-----------------/
B-----------------------------/
G--------7--------------------/
------------------------------/
------------------------------/
------------------------------/

                Gm A
pero no de soledad

Riff 8 (otra vez)

A                      Dm
De eso y muchas cosas mas
          Gm   A
Yo jamás sufrí

Riff 10:

e---------------------------------------------/
B------8----8---------------10-----10---------/
G--/7-----7---7---------/9------9------9------/
----------------------------------------------/
----------------------------------------------/
----------------------------------------------/

 Dm
yo jamás llore
              Gm  A
Yo era muy feliz

Riff 10 (otra vez)

 Dm
yo vivía muy bien

(CORO)

                 Gm C
Hasta que te conocí
                 F   Dm
Vi la vida con dolor
              Gm      A#
No te miento fui feliz
                      A
Aunque con muy poco amor
Dm                 Gm
Y muy tarde comprendí
C                 F    A#
Que no te debía amar
             Gm
Porque ahora pienso en ti
          A       Dm
Mas que ayer, mucho más

Interludio:

e-------------------------------------------------/
B-------------------------------------------------/
G--2--3--2--3--2--3--2--3/7---2--2--1--0----------/
D-------------------------------------------------/
--------------------------------------------------/
--------------------------------------------------/

e-------------------------------------------------/
B-------------------------------------------------/
G--2--3--2--3--2--3--2--3/9---2--2--1--0--2-------/
D-------------------------------------------------/
--------------------------------------------------/
--------------------------------------------------/

Solo:

e---------------------------------------------------------------------/
B---------------------------------------------------------------------/
G--12b14--12b14--12b14r12--10--12^14--12^14--10--12--14--14--15--12---/
D---------------------------------------------------------------------/
----------------------------------------------------------------------/
----------------------------------------------------------------------/

e---------------------------------------------------------------------/
B---------------------------------------------------------------------/
G---9--10--12--12---9--10--12--12---9--10--12--12--15--14v------------/
D---------------------------------------------------------------------/
----------------------------------------------------------------------/
----------------------------------------------------------------------/

A             Dm
Ahora quiero que me digas
Am                    A
Si valió o no la pena el haberte conocido
              Dm
Porque no te creo mas
F                       Dm
Y es que tu fuiste muy mala
A
Si muy mala conmigo
           Am          Dm
Por eso no te quiero, no te quiero ver jamas
             Am               A
Vete, vete, vete salte de mi pena
Am     A                Dm               Am
Vete, no te quiero, no te quiero ver jamas.

Outro:

e----------10------/10-------10--9--10--10/12-----/
B--/10--10------10--------------------------------/
G-------------------------------------------------/
D-------------------------------------------------/
--------------------------------------------------/
--------------------------------------------------/

e----------12--12----------12--12------/15--13--12--10/--------/
B--10--11----------10--10--------------------------------------/
G--------------------------------------------------------------/
D--------------------------------------------------------------/
---------------------------------------------------------------/
---------------------------------------------------------------/
Suggest correction
What's this?
You can suggest a correction to this tab. Community and Mods will review your correction and vote to approve or reject it.
comments
print report bad tab
guest
You may want to rate the tab now too:
select rating
Please do not post tabs as comments. Select "correction" instead!