Oops, an error
Loading. Please wait.

Justicia Tierra Y Libertad Tab

version 1
version 1

Whole song

Interactive

3,016 views 3 this week
no commentswrite comment
1 2 3 4 5
please rate
add to favorites
launch autoscroll
font size
0
reset
how to read this tab
guitar tuner
Tab Pro tools
  • play this tab
  • loop segment
  • change instrument
  • show fretboard
  • metronome
×
Best way to learn
"Justicia Tierra Y Libertad"
Autoscroll
slow
fast
+/-
esc
set tempo
stop
Contributor
Standar tuning for every part. This my first attempt at tabbing and i know that there 
plenty of errors, but i didnt see any tabs for this song so i think this is a starting point.

You'll see these things || when those are at the end it means that that particular part 
the song is over. If u dont see the || it means that it continues.

Lead Guitar
e||----------------------------------------------------------------||
b||--------------------------------10------------------------------||
g||--------------7--7\9-9-9-9---9-9--9-9-9-7-9-7--7----------------||
d||----10--9--10--10----------------------------10-10-10\12-10-9-7-||
a||-7--------------------------------------------------------------||
E||----------------------------------------------------------------||
0:00-0:13

e||---------------------------------------------||
b||----5-6-5-8-5-6-5-6-5-----6-5----------------||
g||-5-7---------7---7---7-5-7---7-5-4-4\7-5-2-2-||
d||---------------------------------------------||
a||---------------------------------------------||
E||---------------------------------------------||
0:26-0:31

e||-----------------------------------------------\12------------------|
b||----10-10--\10-12-13-13h15-13-12-10-12h13-10-10---13-12-13h15-13----|
g||-\\9-----9----------------------------------------------------------|
d||--------------------------------------------------------------------|
a||--------------------------------------------------------------------|
E||--------------------------------------------------------------------|
0:38-

e||-\12----------------------------------------------------------8---------|
b||----10-12-12\13-12-13-13\15-13-15---10-12-12h13-12-13--8-10-10-10-10-10-|
g||----------------------------------\12-----------------9-----------------|
d||------------------------------------------------------------------------|
a||------------------------------------------------------------------------|
E||------------------------------------------------------------------------|
0:47-

e||-----------------------||
b||-10-8------------------||
g||------10-9-------------||
d||-----------8\10-7-7-7--||
a||-----------------------||
E||-----------------------||
0:55-0:57

e||----------------------------------------|
b||----------------------------------------|
g||----------------------------------------|
d||-----10-9-10-12-14-12/10-12\14-14-12h14-|
a||-1010-----------------------------------|
E||----------------------------------------|
1:19-1:23

e||---------------------------------------12-12--------15-12-||
b||--------------------\13-12h13p12p10-10------13h15---------||
g||------9-9--7-9--------------------------------------------||
d||-----9----9---10------------------------------------------||
a||-7-10-----------------------------------------------------||
E||----------------------------------------------------------||
1:31-1:39

e||------------------------------------1212-12-12-10-12-12\13-12---------|
b||-------------------------------------------------------------13-------|
g||------------------------\b14-141414----------------------------141414-|
d||-10101010--7-7-10101010-----------------------------------------------|
a||--7-7-7-7--7-7--7-7-7-7-----------------------------------------------|
E||----------------------------------------------------------------------|
2:02-2:15

e||----------------------\17-17---15-14-12------------1212----1010-----||
b||-\10-10\12-12\13-13\15-----------------\b13----1313----1212----12-10||
g||--------------------------------------------------------------------||
d||--------------------------------------------------------------------||
a||--------------------------------------------------------------------||
E||--------------------------------------------------------------------||
2:20-2:31

e||----------||
b||-10\13-10-||
g||----------||
d||----------||
a||----------||
E||----------||
2:31-2:32

e||-----17-15-1717----17-15-1717---1717-19-19h20--20-19-17-15-15\17-|
b||-1515----------1515-----------17---------------------------------|
g||-----------------------------------------------------------------|
d||-----------------------------------------------------------------|
a||-----------------------------------------------------------------|
E||-----------------------------------------------------------------|
2:45-2:50

e||-----------------------10-12-13-12-10--12----------10----------------||
b||-13-13-121312-10--10-12--------------13--1010-12-13--13-12-10h13-1010||
g||---------------------------------------------------------------------||
d||---------------------------------------------------------------------||
a||---------------------------------------------------------------------||
E||---------------------------------------------------------------------||
2:58-3:06

e||------------------------------------------------------------------||
b||----------8-8\10-b10----------------------------------------------||
g||-\9-9-9\10----------10-9-7-9-10-10\12-1012--7-9-9\10-9-7--------9-||
d||------------------------------------------10------------10-10\12--||
a||------------------------------------------------------------------||
E||------------------------------------------------------------------||
3:07-3:15

e||----------------------------------------------------------|
b||----------------------------------------------------------|
g||------------------------------------------------------4\7-|
d||/////-------------------1h4-4\6--5h6-6-6-6p4---666664-6\9-|
a||/////---------------------------------------6-6-----------|
E||/////4h5-5-5-5p3-0-0-4h5----------------------------------|
3:15-3:20

e||---------------\12-17-15-14-14\22-21--b17-15-14h15-12----10-1212-|
b||---99-8--99-8----------------------------------------10-12-------|
g||-\9----\9----\9--------------------------------------------------|
d||-----------------------------------------------------------------|
a||-----------------------------------------------------------------|
E||-----------------------------------------------------------------|
3:20-3:27

e||-10--1010------------------------------------\12-17-19-20-19-17-15-17||
b||---12----12-10-1212-10-8-7-8-10-8-8\13-b10-\10-----------------------||
g||---------------------------------------------------------------------||
d||---------------------------------------------------------------------||
a||---------------------------------------------------------------------||
E||---------------------------------------------------------------------||
3:27-3:33

e||-\b17-17-1512--\b17-17-1512--\20\20\20\20-20p19-17-15-15\17-||
b||------------------------------------------------------------||
g||------------------------------------------------------------||
d||------------------------------------------------------------||
a||------------------------------------------------------------||
E||------------------------------------------------------------||
4:08-4:16

e||---------------------------------------------1210--------1210-------|
b||-------------------------------------12-10--12--12-1010-12--12-1010-|
g||-------7-9-7---7--9\12-12-12--9-10-12-------------------------------|
d||-7-9-10-----10--9---------------------------------------------------|
a||--------------------------------------------------------------------|
E||--------------------------------------------------------------------|
4:35
e||--1210----------------\17-17--b17----12-15-1717-14-15-1717-|
b||-12---17p15p14-17p15p14------------------------------------|
g||-----------------------------------------------------------|
d||-----------------------------------------------------------|
a||-----------------------------------------------------------|
E||-----------------------------------------------------------|

e||-17\20-17-15-17-17\20-19-20\22-22-22-22/20-19-17-15-17\20-19-17-15-|
b||-------------------------------------------------------------------|
g||-------------------------------------------------------------------|
d||-------------------------------------------------------------------|
a||-------------------------------------------------------------------|
E||-------------------------------------------------------------------|

e||-15\17-15-14/12-12\15-14-12---------||
b||---------------------------15-15\17-||
g||------------------------------------||
d||------------------------------------||
a||------------------------------------||
E||------------------------------------||

I know that last part is wrong couldnt really hear it.

Guitar II
e||-5--5--5--5------------5--5--7--8------------||
b||--5--5--5---6--6--8--8--5--5--5---6--6--8--8-|| Play throughout song
g||---5--5--5---7--7--7-----5--5--5---7--7--7---||
d||--------------8--8--8---------------8--8--8--||
a||---------------------------------------------||
E||---------------------------------------------||
0:21-3:33
Again at 3:55-4:16

e||-----------------------------------------||  Play x7
b||--------------------\10101010x10x10x1010-||
g||--------------------\-7-7-7-7x-7x-7x-7-7-||
d||-\991010x10x-9-x1010---------------------||
a||-\88-8-8x-8x-8-x-8-8---------------------||
E||-----------------------------------------||
4:16-4:46

e||------------------------------------------|
b||-12121313x13x12x1313-17171717xx17x17x1717-|
g||-11111111x11x11x1313-14141414xx14x14x1414-|
d||------------------------------------------|
a||------------------------------------------|
E||------------------------------------------|
4:46-
The one above and below play until song ends

e||----------------------------------------------|
b||-12121313x13x12x1313-17171717xx17-17x13x-1213-|
g||-11111111x11x11x1313-14141414xx14-14x12x------|
d||----------------------------------------------|
a||----------------------------------------------|
E||----------------------------------------------|

Guitar 3
e||----------------------||
b||-10-10-10-10-6-6-88-8-||
g||-11-11-11-11-7-7-99-9-||
d||----------------------||
a||----------------------||
E||----------------------||
3:33-repeat until end
comments
We did not receive enough feedback on this tab! Please rate:
print report bad tab
1 2 3 4 5
I want to post or [tab]
guest
You may want to rate the tab now too:
select rating
Please do not post tabs as comments. Select "correction" instead!