Oops, an error
Loading. Please wait.

Labios Compartidos Tab

version 1
version 1

Intro

Whole song

52,556 views 15 this week
2 commentsread comments
1 2 3 4 5
accurate
x 9
add to favorites
launch autoscroll
font size
0
reset
how to read this tab
guitar tuner
Autoscroll
slow
fast
+/-
esc
set tempo
stop
Help us to improve Ultimate-Guitar.com Take our survey!
×
Difficulty
intermediate
Labios Compartidos by Mana
Tabbed by Aaron Jimenez

To watch a video of me playin go to:

http://vids.myspace.com/index.cfm?fuseaction=vids.myvideos&MyToken=5564c6cc-2afa-401b-9086-304f97f8488f

THIS IS PRETTY MUCH IT ..

he capo's the first fret..
but here's a tab without capo..

intro chords

Amor Mio...
c minor , D# major , A# maj , F minor
E-3       6          6        8
B-4       8          6        7
G-5       8          7        9
D-5       8          8        9
A-3       6          8        8
E-X       X          6        X

Intro Lead over chords
E-3---3-------|
B---4---------|
G-------3-----|
D-------------|
A-------------|
E-------------|

esto es cielo, es mi cielo..

then this little riff..
e----1-1-------------------|
b--------3-3-4-4-1-1-3/4-4-|
g-3\1----------------------|

Verse Chords

Amor Fugado..

  C Minor , D# Major , A# Major , F Minor
E-3         6          6          8
B-4         8          6          7
G-5         8          7          9
D-5         8          8          9
A-3         6          8          8
E-X         X          6          X

Prechorus chords..(lead guitar just picks a couple of the high notes of the chords..

Otra Vez mi boca...

  G minor , G# Major, D# Major, A# Major

E-3         4         6         4
B-3         4         8         4
G-3         5         8         5
D-5         6         8         6
A-5         6         6         6
E-3         4         X         4

Chorus Chords

"Labios Compartidos..

  G# Major , A# Major ,D# Major , C Minor(All Shown above)

2nd Verse Chords

Amor Mutante...
  C Minor , D# Major , A# Major , F Minor
E-3         6          6          8
B-4         8          6          7
G-5         8          7          9
D-5         8          8          9
A-3         6          8          8
E-X         X          6          X

Relampagos de alcohol...

lead guitar plays this over chords.. Love this part!!


  E--8----8--8---8--8----8--8--8--8-|
~>B--9----8--8---8-11----9--9--9--8-|
  G--8----8--8---8--8----8--8--8--8-|
  D-10---10-10--10-10---10-10-10-10-|
  A---------------------------------|
  E---------------------------------|..

E-6---------------------|
B-6---------6-------6---|
G-7---7h8-------7h8---8-|
D-8-8-----8---8---------|
A-----------------------|
E-----------------------| then repeat 2 more times then...

  E--8----8--8---8--8----8--8--8--8-|
~>B--9----8--8---8-11----9--9--9--8-|
  G--8----8--8---8--8----8--8--8--8-|
  D-10---10-10--10-10---10-10-10-10-|
  A---------------------------------|
  E---------------------------------|..

E-6----------6---------|
B-6-----6----6-----8---|
G-7h8-7------7h8-7-----|
D-8----------8---------|
A----------------------|
E----------------------|


Pre-chorus again..

Then Chorus x2..

3rd time chord change..

G# Major , A# Major, D Major, "G Minor"

                               E-3
                               B-3
                               G-3
                               D-5
                               A-5
                               E-3

Then play G# Major , A# Major..

Solo.(All the single notes play with one finger so you get the sliding effect)

E----------------------------------------------------------------------------|
B----------------------------------------------------------------------------|
G-5--7--8--5--7-7-8-8-7-7-8--5--3--5--7--8--5--3--8-8-8-10-10-10-12-12-12-15-|
D----------------------------------------------------------------------------|
A----------------------------------------------------------------------------|
E----------------------------------------------------------------------------|

E----------|
B----------|
G-15-15-17-|
D----------|
A----------|
E----------|

Right here songs get kinda blurry so i improvise with this..
E-----------------------------------------------------------
B-13'''13'''13'''13'''11'''11'''9'''9'''13'''13'''13'''13'''(tremolo
G-----------------------------------------------------------|picking
D-----------------------------------------------------------|4X per #)
A-----------------------------------------------------------|
E-----------------------------------------------------------|

E----------------------------------|-15-15-15--15-15-15-15--15-15-15-15--15-|
B----------------------------------|-16-16-15--15-16-16-15--15-16-16-15--15-|
G-8-8-8-10-10-10-12-12-12-15-15-17-|----------------------------------------|
D----------------------------------|----------------------------------------|
A----------------------------------|----------------------------------------|
E----------------------------------|----------------------------------------|
                                   |     ^     ^     Play 3X     ^     ^
E-15-13-13---------|--8-|
B-15-13-13-13-13-13|--8-|
G----------15-15-13|--8-|
D------------------|-10-|
A------------------|-10-|
E------------------|--8-|
    ^     ^     ^  |
To watch a video of me playin go to:

http://vids.myspace.com/index.cfm?fuseaction=vids.myvideos&MyToken=5564c6cc-2afa-401b-9086-304f97f8488f

Alright Y'all have fun!!!  Aaron
Suggest correction new What's this?
You can suggest a correction to this tab. Community and Mods will review your correction and vote to approve or reject it.
comments
print report bad tab
2 comments total.
0 reply
try_to_hit_me 33 wrote on December 2 2006, 09:16 pm

...

0 reply
Ruben_Everardo 15 wrote on November 25 2009, 05:25 pm

no creo k ste correcta

guest
You may want to rate the tab now too:
select rating
Please do not post tabs as comments. Select "correction" instead!