Oops, an error
Loading. Please wait.

Human Tab

1,231 views 1 this week
no commentswrite comment
1 2 3 4 5
2 more votes to show rating
add to favorites
launch autoscroll
font size
0
reset
how to read this tab
guitar tuner
Autoscroll
slow
fast
+/-
esc
set tempo
stop
Help us to improve Ultimate-Guitar.com Take our survey!
×
Author
Difficulty
Tuning
novice
D A D G B E
Artist: Manafest
Album: Fighter
Song: Human
Tuning: Drop D
Tabbed by: TFKfan75

/=slide
h=hammer on


Intro:

E--------------------------------------------------------|
B--------------------------------------------------------|
G--------------------------------------------------------|
D--8---/12---7--7h8-5--5-3-0---/12---7--7h8-5------------|
A--------------------------------------------------------|
D--------------------------------------------------------|
s
Just drums, piano, and singing for the beginning of the verse...

Then guitar comes in:

E--------------------------------------------------------|
B--------------------------------------------------------|
G--------------------------------------------------------|
D--8---/12---7--7h8-5------------------------------------|
A--------------------------------------------------------|
D--------------------------------------------------------|

Pre-chorus: "Don't leave me stranded as I reach out my hand"

E--------------------------------------------------------|
B--------------------------------------------------------|
G--5-------8---------------------------------------------|
D--5-------8---------------------------------------------|
A--3-------6---------------------------------------------|
D--------------------------------------------------------|

Chorus: "Cause I wear my heart on my sleeve..."

E--------------------------------------------------------|
G--------------------------------------------------------|
B--------------------------------------------------------|
D--xx-1-1-1-5-5-5-5-5-8-8-8-5-5-5-5----------------------| 2x
A--xx-1-1-1-5-5-5-5-5-8-8-8-5-5-5-5----------------------|
D--xx-1-1-1-5-5-5-5-5-8-8-8-5-5-5-5----------------------|

Chorus continued: "I never said I was an angel..."

E-------------------------------------------------------------------|
G-------------------------------------------------------------------|
B----------3-3-3-3-5-5-5-5----------5-5-5-5-5-5-5-5-8-8-8-8-8-8-8---|
D--1-1-1-1-3-3-3-3-5-5-5-5-5-5-5-5--5-5-5-5-5-5-5-5-8-8-8-8-8-8-8---|
A--1-1-1-1-1-1-1-1-3-3-3-3-5-5-5-5--3-3-3-3-3-3-3-3-6-6-6-6-6-6-6---|
D--1-1-1-1-----------------5-5-5-5----------------------------------|

Post Chorus:
"I'm only Human..."

E------------------------------------------------------|
G---------6---------6----------------------------------|
B------------------------------------------------------|
D--5-5-5-----8-8-8-----3-------3--3--3--3--1--1--1--1--|
A--5-5-5-----8-8-8-------5-3-1-3--3--3--3--1--1--1--1--| 2x
D--5-5-5-----8-8-8-------------3--3--3--3--1--1--1--1--|

Verse 2 same as verse 1
Pre-chorus
Chorus
Post Chorus

Bridge: "I know I'm breaking your heart..."
I'm not really sure about this part, but this is what i hear...

E------------------------------------------------------------|
B------------------------------------------------------------|
G--7-7-7-7-7-7-7-7--------------7-7-7-7-7-7-7-7--------------|
D--7-7-7-7-7-7-7-7-5--7--8------7-7-7-7-7-7-7-7-5--7--8------|
A--5-5-5-5-5-5-5-5-5--7--8--/5--5-5-5-5-5-5-5-5-5--7--8--/5--|
D------------------5--7--8----------------------5--7--8------|

Bridge continued:
"But you know that I"m ready to take the fall"

E-------------------------------------------------------------------------|
B-------------------------------------------------------------------------|
G-------------------------------------------------------------------------|
D--1-1-1-1-1-1-1-1-3---------8---/12---7--7h8-5--5-3-0---/12---7--7h8-5/--|
A--1-1-1-1-1-1-1-1-3------------------------------------------------------|
D--1-1-1-1-1-1-1-1-3------------------------------------------------------|
                   hold

Chorus
Post Chorus 2x

That's all folks
God bless :)
Suggest correction
Give kudos to tab author, rate the tab!
1 2 3 4 5
comments
print report bad tab
guest
You may want to rate the tab now too:
select rating
Wanna post a correction for this tab? Suggest correction