Oops, an error
Loading. Please wait.

Impossible Tab

8,312 views 15 this week
no commentswrite comment
1 2 3 4 5
worth learning
x 2
add to favorites
launch autoscroll
font size
0
reset
how to read this tab
guitar tuner
Tab Pro tools
  • play this tab
  • loop segment
  • change instrument
  • show fretboard
  • metronome
Autoscroll
slow
fast
+/-
esc
set tempo
stop
Contributor
Manafest - Glory - Impossible

Tabbed By: FRr3AkOnALEaSh (smokin_05@hotmail.com)
Tuning: 6 String Tuned Drop C (C G C F A D)

Riff 1 (Intro)(Verse)
D|---------------|----------------|
A|---------------|----------------|
F|---------------|----------------|
C|--5-6-8-6-5-6--|--6-5-6-8-6-5~--|
G|---------------|----------------|
C|---------------|----------------|
    . . . . . .     . . . . .      PM

Riff 2 (Intro/Chorus)(Guitar 1)
D|-------------------|-------------------|-------------------|
A|-------------------|-------------------|-------------------|
F|-------------------|-------------------|-------------------|
C|--3~-----3~3~33~3--|--1~-----1~1~11~1--|--0~-----0~0~00~0--|
G|--3~-----3~3~33~3--|--1~-----1~1~11~1--|--0~-----0~0~00~0--|
C|--3~-33--3~3~33~3--|--1~-11--1~1~11~1--|--0~-00--0~0~00~0--|
       ..                  ..                  ..             PM

Riff 3 (Intro/Chorus/Outro)(Guitar 2)
D|-----------------|------------------|
A|-----------------|------------------|
F|-----------------|------------------|
C|--6--6--6---6-6--|--6--6--6---6-8---|
G|---8--8--8-8-----|---8--8--8-8------|
C|-----------------|------------------|

Riff 3 (Intro/Chorus/Outro)(Guitar 1)
D|---------------------|
A|---------------------|
F|---------------------|
C|--6~-5~--6-6-6-8-5~--|
G|--6~-5~--6-6-6-8-5~--|
C|--6~-5~--6-6-6-8-5~--|

Riff 4 (Verse)(Guitar 1)
D|-----------------------|
A|-----------------------|
F|-----------------------|
C|--33-33--11-11--00-00--|
G|--33-33--11-11--00-00--|
C|--33-33--11-11--00-00--|

Riff 5 (Pre-Chorus)(Guitar 2)
D|-----------------------|
A|-----------------------|
F|-----------------------|
C|--6---6-6---6-8~-6-5---|
G|---8~--8-----8------8--|
C|-----------------------|

Riff 6 (Bridge)(Guitar 1)
D|--------------------|
A|--------------------|
F|--------------------|
C|--0~0~0~0~0~0~0~0~--|
G|--0~0~0~0~0~0~0~0~--|
C|--0~0~0~0~0~0~0~0~--|

Riff 7 (Bridge)(Guitar 1)
D|------------------------|
A|------------------------|
F|------------------------|
C|--6-6-6\5/6-6-6-6/8-5~--|
G|--6-6-6\5/6-6-6-6/8-5~--|
C|--6-6-6\5/6-6-6-6/8-5~--|

Riff 8 (Bridge)(Guitar 1)
D|---------------------------|--------------|
A|---------------------------|--------------|
F|---------------------------|--------------|
C|--0-0-0-0-0-0-0-0-6-6-6-5--|--------------|
G|--0-0-0-0-0-0-0-0-6-6-6-5--|--------------|
C|--0-0-0-0-0-0-0-0-6-6-6-5--|--6-6-6h8-5~--|

Riff 9 (Bridge)(Guitar 2)
D|----------------|-----------------|
A|--8-9-11-9-8-9--|--9-8-9-11-9-8~--|
F|----------------|-----------------|
C|----------------|-----------------|
G|----------------|-----------------|
C|----------------|-----------------|
    . . .  . . .     . . . .  .      PM

Riff 10 (Bridge)(Guitar 1)
D|----------|
A|----------|
F|----------|
C|--8\6-5~--|
G|--8\6-5~--|
C|--8\6-5~--|

NOTE: Listen to the song to structure out each riff.
comments
We did not receive enough feedback on this tab! Please rate:
print report bad tab
1 2 3 4 5
I want to post or [tab]
guest
You may want to rate the tab now too:
select rating
Please do not post tabs as comments. Select "correction" instead!