Oops, an error
Loading. Please wait.
10 views 10 this week
no commentswrite comment
1 2 3 4 5
3 more votes to show rating
add to favorites
launch autoscroll
font size
0
reset
how to read this tab
guitar tuner
Autoscroll
slow
fast
+/-
esc
set tempo
stop
Help us to improve Ultimate-Guitar.com Take our survey!
×
Author
Difficulty
novice
[Intro]


E|--------------------------------------------------------------------------------------------------|--
B|-----9-----9-----9-----9--------------------------------------------------------------------------|--
G|--9-----9-----9-----9--------8-----8-----8-----8-----9-----9-----9-----9-----4-----4-----4-----4--|--
D|--------------------------9-----9-----9-----9-----6-----6-----6-----6-----6-----6-----6-----6-----|-- 
A|--------------------------------------------------------------------------------------------------|--
E|--------------------------------------------------------------------------------------------------|--



[Verse]

1GTR:
E|--------------------------------------------------------------------------------------------------|--
B|-----9-----9-----9-----9--------------------------------------------------------------------------|--
G|--9-----9-----9-----9--------8-----8-----8-----8-----9-----9-----9-----9-----4-----4-----4-----4--|--
D|--------------------------9-----9-----9-----9-----6-----6-----6-----6-----6-----6-----6-----6-----|-- x4
A|--------------------------------------------------------------------------------------------------|--
E|--------------------------------------------------------------------------------------------------|--


2GTR:
E|-----|-----|-----|-----|--
B|--9--|--7--|--9--|--4--|-- effetto tremolo
G|--9--|--8--|--9--|--4--|--
D|--7--|--9--|--6--|--6--|--
A|-----|-----|-----|-----|--
E|-----|-----|-----|-----|--



[Chorus]

1GTR:
E|-----------------------------------------------------------------------|--
B|--9--9-----9--9-----4--4-----4--4-----5--5-----5--5-----4--4-----4--4--|--
G|--9--9-----9--9-----4--4-----4--4-----6--6-----6--6-----4--4-----4--4--|-- x2
D|--7--7-----7--7-----2--2-----2--2-----6--6-----6--6-----2--2-----2--2--|--
A|--------------------------------------4--4-----4--4--------------------|--
E|-----------------------------------------------------------------------|--

2GTR:
E|--------------------------------------------------------------------------|--
B|--------------------------------------------------------------------------|--
G|--------------------------------------------------------------------------|--
D|--7--7--7--7-----14--14--14--14-----11--11--11--11-----14--14--14--14-----|-- x2
A|--7--7--7--7-----14--14--14--14-----11--11--11--11-----14--14--14--14-----|--
E|--5--5--5--5-----12--12--12--12-----9---9---9---9------12--12--12--12-----|--



[RIFF]

E|----------------------------------------------------------------------------------------------|--
B|----------------------------------------------------------------------------------------------|--
G|----------------------------------------------------------------------------------------------|--
D|----------------------------------------------------------------------------------------------|-- x2
A|--9--9--7-----6--7-----9--11--9---------9--7--------------------6-----------------------------|--
E|---------------------------------11--------------7-----7--6--7--------6-----6-----7--7--7--7--|--



[Bridge]

E|-----|-----|-----|-----|--
B|--9--|--7--|--9--|--4--|-- effetto tremolo
G|--9--|--8--|--9--|--4--|--
D|--7--|--9--|--6--|--6--|--
A|-----|-----|-----|-----|-- x2
E|-----|-----|-----|-----|--



[Chorus]

1GTR:
E|-----------------------------------------------------------------------|--
B|--9--9-----9--9-----4--4-----4--4-----5--5-----5--5-----4--4-----4--4--|--
G|--9--9-----9--9-----4--4-----4--4-----6--6-----6--6-----4--4-----4--4--|-- x2
D|--7--7-----7--7-----2--2-----2--2-----6--6-----6--6-----2--2-----2--2--|--
A|--------------------------------------4--4-----4--4--------------------|--
E|-----------------------------------------------------------------------|--

2GTR:
E|--------------------------------------------------------------------------|--
B|--------------------------------------------------------------------------|--
G|--------------------------------------------------------------------------|--
D|--7--7--7--7-----14--14--14--14-----11--11--11--11-----14--14--14--14-----|-- x2
A|--7--7--7--7-----14--14--14--14-----11--11--11--11-----14--14--14--14-----|--
E|--5--5--5--5-----12--12--12--12-----9---9---9---9------12--12--12--12-----|--



[RIFF]

E|----------------------------------------------------------------------------------------------|--
B|----------------------------------------------------------------------------------------------|--
G|----------------------------------------------------------------------------------------------|-- x2
D|----------------------------------------------------------------------------------------------|--
A|--9--9--7-----6--7-----9--11--9---------9--7--------------------6-----------------------------|--
E|---------------------------------11--------------7-----7--6--7--------6-----6-----7--7--7--7--|--



[Outro]

E|---------------|--------------|--
B|------------9--|-----------7--|--
G|--9--11--9-----|--8--9--8-----|-- ogni battuta x4
D|---------------|--------------|-- il tutto due volte
A|---------------|--------------|--
E|---------------|--------------|--
Suggest correction
Give kudos to tab author, rate the tab!
1 2 3 4 5
comments
print report bad tab
guest
You may want to rate the tab now too:
select rating
Wanna post a correction for this tab? Suggest correction