Oops, an error
Loading. Please wait.

Hoy Todo Anda Bien Bass

37 views 3 this week
no commentswrite comment
1 2 3 4 5
3 more votes to show rating
add to favorites
launch autoscroll
font size
0
reset
guitar tuner
×
Best way to learn
"Hoy Todo Anda Bien"
Autoscroll
slow
fast
+/-
esc
set tempo
stop
Intro

G|-----------4-------------|             (v: vibrato)
D|---6-6p4-----6-4v--------|
A|---------6--------6p4----|
E|-4--------------------7--|(x8)

G|--------|
D|--------|
A|--------|
E|---4----|

"Sale el sol..."

G|--------------------|
D|--------------------|
A|-4444444444444444h6-|
E|--------------------|

G|-----------4---------|
D|---6-6p4-----6-4v----|
A|---------6--------6-5|
E|-4-------------------|

"Ya es hoy..."

G|--------------------|
D|--------------------|
A|-4444444444444444h6-|
E|--------------------|

G|-----------4-----------|
D|---6-6p4-----6-4v------|
A|---------6--------6----|
E|-4------------------5-6|

"Hoy todo anda bien..."

G|----------------------|
D|--------------6-7-8-9-|
A|---6-7-8-9--7---------|
E|-7--------------------|

"un sol para los dos..."

G|----------------------|
D|-9---9-------6-7-8-9--|
A|---6---9-8-7----------|
E|----------------------|

"manzanas y cafes..."

G|---8-9-10-11-9-------------|
D|-9-------------12-11-9-7-9-|
A|---------------------------|
E|---------------------------|

"trabajo del mejor..."

G|--------------------|
D|------------6-7-8-9-|
A|-6-7-8-9--7---------|
E|--------------------|

"Hoy todo, hoy todo..."

G|------------------------------------------6-4----------------|
D|-99-9-9-9-99-9--------------66666-------6-----6-5-444444s15s4|
A|---------------9-8-77777777-------6-5-4----------------------|
E|-------------------------------------------------------------|

"Sale el sol..."

G|--------------------|
D|--------------------|
A|-4444444444444444h6-|
E|--------------------|

G|-----------4------------|
D|---6-6p4-----6-4v-------|
A|---------6--------6-4---|
E|-4--------------------7-|

"Ya es hoy..."

G|--------------------|
D|--------------------|
A|-4444444444444444h6-|
E|--------------------|

G|-----------4-----------|
D|---6-6p4-----6-4v------|
A|---------6--------6----|
E|-4------------------5-6|

"Hoy todo anda bien..."

G|----------------------|
D|--------------6-7-8-9-|
A|---6-7-8-9--7---------|
E|-7--------------------|

"un sol para los dos..."

G|----------------|
D|-9-9-----9------|
A|-----6-7---9p7--|
E|----------------|

"manzanas y cafes..."

G|---9-7-6------------------------|
D|-6-------9-7-6-6----------------|
A|-----------------9-8-7----------|
E|-----------------------4-5-6-7-7|

"trabajo del mejor..."

G|--------------------|
D|------------6-7-8-9-|
A|-6-7-8-9--7---------|
E|--------------------|

"Hoy todo, hoy todo..."

G|-------------------------------|
D|-9---9---9---9---9---9---9-----|
A|---------------------------9-8-|
E|---7---7---7---7---7---7-------|

"...anda bien"

G|------------------------6-4----------|
D|----------66666-------6-----6-5------|
A|-77777777-------6-5-4----------------|
E|--------------------------------2-2--|

Solo (Nota: en ésta parte notarán que el primer compás está una octava mas
            grave de lo que figura acá, es que el bajo está grabado con 5
            cuerdas. O sea, las notas están bien solo una octava arriba)

G|----------------------|
D|----------------------|
A|---6-7-8-9--7---------|
E|-7------------4-5-6-7-|(x8)

G|--------|
D|--------|
A|--------|
E|---7----|(x15)

Rasgueando

G|-11-11-11-11-9-9-9-9-8-8-8-8-7-7-7-7-|
D|-9--9--9--9--7-7-7-7-6-6-6-6-5-5-5-5-|
A|-------------------------------------|
E|-------------------------------------|

G|-11-11-11-11-13-13-13-13-14-14-14-14-16-16-16-16-|
D|-9--9--9--9--11-11-11-11-12-12-12-12-14-14-14-14-|
A|-------------------------------------------------|
E|-------------------------------------------------|

G|-11-11-11-11-9-9-9-9-8-8-8-8-7-7-7-7-|
D|-9--9--9--9--7-7-7-7-6-6-6-6-5-5-5-5-|
A|-------------------------------------|
E|-------------------------------------|

G|----6----|
D|----4----|
A|---------|
E|---------|(x8)

G|-6-6-6-6-7-7-7-7-8-8-8-8-9-9-9-9-11-|
D|-4-4-4-4-5-5-5-5-6-6-6-6-7-7-7-7-9--|
A|------------------------------------|
E|------------------------------------|

G|----11----|
D|----9-----|
A|----------|
E|----------|(x16)

Final

G|--4---------|
D|----4-2-0---|
A|----------2-|
E|------------|
Suggest correction
Give kudos to tab author, rate the tab!
1 2 3 4 5
comments
print report bad tab
guest
You may want to rate the tab now too:
select rating
Wanna post a correction for this tab? Suggest correction